  0
SECTION
  2
HEADER
  9
$ACADVER
  1
AC1009
  9
$INSBASE
 10
0.0
 20
0.0
 30
0.0
  9
$EXTMIN
 10
229.150661
 20
-241.332793
 30
-311.335636
  9
$EXTMAX
 10
2329.150661
 20
176.667207
 30
223.130809
  9
$LIMMIN
 10
0.0
 20
0.0
  9
$LIMMAX
 10
1500.0
 20
1500.0
  9
$ORTHOMODE
 70
     0
  9
$REGENMODE
 70
     1
  9
$FILLMODE
 70
     1
  9
$QTEXTMODE
 70
     0
  9
$MIRRTEXT
 70
     1
  9
$DRAGMODE
 70
     2
  9
$LTSCALE
 40
1.0
  9
$OSMODE
 70
    41
  9
$ATTMODE
 70
     1
  9
$TEXTSIZE
 40
2.5
  9
$TRACEWID
 40
1.0
  9
$TEXTSTYLE
  7
STANDARD
  9
$CLAYER
  8
0
  9
$CELTYPE
  6
BYLAYER
  9
$CECOLOR
 62
   256
  9
$DIMSCALE
 40
1.0
  9
$DIMASZ
 40
2.5
  9
$DIMEXO
 40
0.625
  9
$DIMDLI
 40
3.75
  9
$DIMRND
 40
0.0
  9
$DIMDLE
 40
0.0
  9
$DIMEXE
 40
1.25
  9
$DIMTP
 40
0.0
  9
$DIMTM
 40
0.0
  9
$DIMTXT
 40
2.5
  9
$DIMCEN
 40
2.5
  9
$DIMTSZ
 40
0.0
  9
$DIMTOL
 70
     0
  9
$DIMLIM
 70
     0
  9
$DIMTIH
 70
     1
  9
$DIMTOH
 70
     0
  9
$DIMSE1
 70
     0
  9
$DIMSE2
 70
     0
  9
$DIMTAD
 70
     1
  9
$DIMZIN
 70
     8
  9
$DIMBLK
  1

  9
$DIMASO
 70
     1
  9
$DIMSHO
 70
     1
  9
$DIMPOST
  1

  9
$DIMAPOST
  1

  9
$DIMALT
 70
     0
  9
$DIMALTD
 70
     2
  9
$DIMALTF
 40
0.0394
  9
$DIMLFAC
 40
1.0
  9
$DIMTOFL
 70
     1
  9
$DIMTVP
 40
1.0
  9
$DIMTIX
 70
     0
  9
$DIMSOXD
 70
     0
  9
$DIMSAH
 70
     0
  9
$DIMBLK1
  1

  9
$DIMBLK2
  1

  9
$DIMSTYLE
  2
ISO-25
  9
$DIMCLRD
 70
     0
  9
$DIMCLRE
 70
     0
  9
$DIMCLRT
 70
     0
  9
$DIMTFAC
 40
1.0
  9
$DIMGAP
 40
0.625
  9
$LUNITS
 70
     2
  9
$LUPREC
 70
     0
  9
$AXISMODE
 70
     0
  9
$AXISUNIT
 10
0.0
 20
0.0
  9
$SKETCHINC
 40
1.0
  9
$FILLETRAD
 40
20.0
  9
$AUNITS
 70
     0
  9
$AUPREC
 70
     0
  9
$MENU
  1
acad
  9
$ELEVATION
 40
0.0
  9
$PELEVATION
 40
0.0
  9
$THICKNESS
 40
0.0
  9
$LIMCHECK
 70
     0
  9
$BLIPMODE
 70
     1
  9
$CHAMFERA
 40
10.0
  9
$CHAMFERB
 40
10.0
  9
$SKPOLY
 70
     0
  9
$TDCREATE
 40
2451106.615834827
  9
$TDUPDATE
 40
2451175.063657396
  9
$TDINDWG
 40
0.0185169907
  9
$TDUSRTIMER
 40
0.0185169907
  9
$USRTIMER
 70
     1
  9
$ANGBASE
 50
0.0
  9
$ANGDIR
 70
     0
  9
$PDMODE
 70
    35
  9
$PDSIZE
 40
-3.0
  9
$PLINEWID
 40
0.0
  9
$COORDS
 70
     1
  9
$SPLFRAME
 70
     0
  9
$SPLINETYPE
 70
     6
  9
$SPLINESEGS
 70
     8
  9
$ATTDIA
 70
     0
  9
$ATTREQ
 70
     1
  9
$HANDLING
 70
     1
  9
$HANDSEED
  5
28BC
  9
$SURFTAB1
 70
     6
  9
$SURFTAB2
 70
     6
  9
$SURFTYPE
 70
     6
  9
$SURFU
 70
     6
  9
$SURFV
 70
     6
  9
$UCSNAME
  2

  9
$UCSORG
 10
0.0
 20
0.0
 30
0.0
  9
$UCSXDIR
 10
1.0
 20
0.0
 30
0.0
  9
$UCSYDIR
 10
0.0
 20
1.0
 30
0.0
  9
$PUCSNAME
  2

  9
$PUCSORG
 10
0.0
 20
0.0
 30
0.0
  9
$PUCSXDIR
 10
1.0
 20
0.0
 30
0.0
  9
$PUCSYDIR
 10
0.0
 20
1.0
 30
0.0
  9
$USERI1
 70
     0
  9
$USERI2
 70
     0
  9
$USERI3
 70
     0
  9
$USERI4
 70
     0
  9
$USERI5
 70
     0
  9
$USERR1
 40
0.0
  9
$USERR2
 40
0.0
  9
$USERR3
 40
0.0
  9
$USERR4
 40
0.0
  9
$USERR5
 40
0.0
  9
$WORLDVIEW
 70
     1
  9
$SHADEDGE
 70
     3
  9
$SHADEDIF
 70
    70
  9
$TILEMODE
 70
     1
  9
$MAXACTVP
 70
    16
  9
$PINSBASE
 10
0.0
 20
0.0
 30
0.0
  9
$PLIMCHECK
 70
     0
  9
$PEXTMIN
 10
1.000000E+20
 20
1.000000E+20
 30
1.000000E+20
  9
$PEXTMAX
 10
-1.000000E+20
 20
-1.000000E+20
 30
-1.000000E+20
  9
$PLIMMIN
 10
0.0
 20
0.0
  9
$PLIMMAX
 10
420.0
 20
297.0
  9
$UNITMODE
 70
     0
  9
$VISRETAIN
 70
     0
  9
$PLINEGEN
 70
     0
  9
$PSLTSCALE
 70
     1
  9
$TREEDEPTH
 70
  3020
  9
$DWGCODEPAGE
  3
dos850
  0
ENDSEC
  0
SECTION
  2
TABLES
  0
TABLE
  2
VPORT
 70
     1
  0
VPORT
  2
*ACTIVE
 70
     0
 10
0.0
 20
0.0
 11
1.0
 21
1.0
 12
1045.069349
 22
465.653324
 13
0.0
 23
0.0
 14
10.0
 24
10.0
 15
10.0
 25
10.0
 16
-1.0
 26
-1.0
 36
1.0
 17
0.0
 27
0.0
 37
0.0
 40
2641.953882
 41
1.357349
 42
50.0
 43
0.0
 44
0.0
 50
0.0
 51
0.0
 71
     0
 72
   100
 73
     1
 74
     1
 75
     0
 76
     0
 77
     0
 78
     0
  0
ENDTAB
  0
TABLE
  2
LTYPE
 70
     1
  0
LTYPE
  2
CONTINUOUS
 70
    64
  3
Solid line
 72
    65
 73
     0
 40
0.0
  0
ENDTAB
  0
TABLE
  2
LAYER
 70
     4
  0
LAYER
  2
0
 70
    64
 62
     7
  6
CONTINUOUS
  0
LAYER
  2
I-SC
 70
    64
 62
    40
  6
CONTINUOUS
  0
LAYER
  2
I-STEEL
 70
    64
 62
   253
  6
CONTINUOUS
  0
LAYER
  2
I-STAND
 70
    64
 62
     7
  6
CONTINUOUS
  0
ENDTAB
  0
TABLE
  2
STYLE
 70
     1
  0
STYLE
  2
STANDARD
 70
    64
 40
0.0
 41
1.0
 50
0.0
 71
     0
 42
2.5
  3
ISOCP
  4

  0
ENDTAB
  0
TABLE
  2
VIEW
 70
     0
  0
ENDTAB
  0
TABLE
  2
UCS
 70
     0
  0
ENDTAB
  0
TABLE
  2
APPID
 70
     1
  0
APPID
  2
ACAD
 70
     0
  0
ENDTAB
  0
TABLE
  2
DIMSTYLE
 70
     8
  0
DIMSTYLE
  2
STANDARD
 70
     0
  3

  4

  5

  6

  7

 40
1.0
 41
0.18
 42
0.0625
 43
0.38
 44
0.18
 45
0.0
 46
0.0
 47
0.0
 48
0.0
140
0.18
141
0.09
142
0.0
143
25.4
144
1.0
145
0.0
146
1.0
147
0.09
 71
     0
 72
     0
 73
     1
 74
     1
 75
     0
 76
     0
 77
     0
 78
     0
170
     0
171
     2
172
     0
173
     0
174
     0
175
     0
176
     0
177
     0
178
     0
  0
DIMSTYLE
  2
ISO-25
 70
     0
  3

  4

  5

  6

  7

 40
1.0
 41
2.5
 42
0.625
 43
3.75
 44
1.25
 45
0.0
 46
0.0
 47
0.0
 48
0.0
140
2.5
141
2.5
142
0.0
143
0.0394
144
1.0
145
1.0
146
1.0
147
0.625
 71
     0
 72
     0
 73
     1
 74
     0
 75
     0
 76
     0
 77
     1
 78
     8
170
     0
171
     2
172
     1
173
     0
174
     0
175
     0
176
     0
177
     0
178
     0
  0
DIMSTYLE
  2
ISO-35
 70
     0
  3

  4

  5

  6

  7

 40
1.0
 41
3.5
 42
0.875
 43
5.25
 44
1.75
 45
0.0
 46
0.0
 47
0.0
 48
0.0
140
3.5
141
3.5
142
0.0
143
0.0394
144
1.0
145
1.4
146
1.0
147
0.875
 71
     0
 72
     0
 73
     1
 74
     0
 75
     0
 76
     0
 77
     1
 78
     8
170
     0
171
     2
172
     1
173
     0
174
     0
175
     0
176
     0
177
     0
178
     0
  0
DIMSTYLE
  2
ISO-5
 70
     0
  3

  4

  5

  6

  7

 40
1.0
 41
5.0
 42
1.25
 43
7.5
 44
2.5
 45
0.0
 46
0.0
 47
0.0
 48
0.0
140
5.0
141
5.0
142
0.0
143
0.0394
144
1.0
145
2.0
146
1.0
147
1.25
 71
     0
 72
     0
 73
     1
 74
     0
 75
     0
 76
     0
 77
     1
 78
     8
170
     0
171
     2
172
     1
173
     0
174
     0
175
     0
176
     0
177
     0
178
     0
  0
DIMSTYLE
  2
ISO-7
 70
     0
  3

  4

  5

  6

  7

 40
1.0
 41
7.0
 42
1.75
 43
10.5
 44
3.5
 45
0.0
 46
0.0
 47
0.0
 48
0.0
140
7.0
141
7.0
142
0.0
143
0.0394
144
1.0
145
2.8
146
1.0
147
1.75
 71
     0
 72
     0
 73
     1
 74
     0
 75
     0
 76
     0
 77
     1
 78
     8
170
     0
171
     2
172
     1
173
     0
174
     0
175
     0
176
     0
177
     0
178
     0
  0
DIMSTYLE
  2
ISO1
 70
     0
  3

  4

  5

  6

  7

 40
1.0
 41
10.0
 42
2.5
 43
15.0
 44
5.0
 45
0.0
 46
0.0
 47
0.0
 48
0.0
140
10.0
141
10.0
142
0.0
143
0.0394
144
1.0
145
4.0
146
1.0
147
2.5
 71
     0
 72
     0
 73
     1
 74
     0
 75
     0
 76
     0
 77
     1
 78
     8
170
     0
171
     2
172
     1
173
     0
174
     0
175
     0
176
     0
177
     0
178
     0
  0
DIMSTYLE
  2
ISO1-4
 70
     0
  3

  4

  5

  6

  7

 40
1.0
 41
14.0
 42
3.5
 43
21.0
 44
7.0
 45
0.0
 46
0.0
 47
0.0
 48
0.0
140
14.0
141
14.0
142
0.0
143
0.0394
144
1.0
145
5.6
146
1.0
147
3.5
 71
     0
 72
     0
 73
     1
 74
     0
 75
     0
 76
     0
 77
     1
 78
     8
170
     0
171
     2
172
     1
173
     0
174
     0
175
     0
176
     0
177
     0
178
     0
  0
DIMSTYLE
  2
ISO2
 70
     0
  3

  4

  5

  6

  7

 40
1.0
 41
20.0
 42
5.0
 43
30.0
 44
10.0
 45
0.0
 46
0.0
 47
0.0
 48
0.0
140
20.0
141
20.0
142
0.0
143
0.0394
144
1.0
145
8.0
146
1.0
147
5.0
 71
     0
 72
     0
 73
     1
 74
     0
 75
     0
 76
     0
 77
     1
 78
     8
170
     0
171
     2
172
     1
173
     0
174
     0
175
     0
176
     0
177
     0
178
     0
  0
ENDTAB
  0
ENDSEC
  0
SECTION
  2
BLOCKS
  0
BLOCK
  8
0
  5
2595
  2
AA
 70
    64
 10
0.0
 20
0.0
 30
0.0
  3
AA
  0
POLYLINE
  8
I-SC
  5
2596
 66
     1
 10
0.0
 20
0.0
 30
0.0
 70
    16
 71
     2
 72
     7
  0
VERTEX
  8
I-SC
  5
2597
 10
1079.150661
 20
-211.332793
 30
203.130809
 70
    64
  0
VERTEX
  8
I-SC
  5
2598
 10
1143.864361
 20
-211.332793
 30
181.037573
 70
    64
  0
VERTEX
  8
I-SC
  5
2599
 10
1210.91754
 20
-211.332793
 30
167.626937
 70
    64
  0
VERTEX
  8
I-SC
  5
259A
 10
1279.150661
 20
-211.332793
 30
163.130809
 70
    64
  0
VERTEX
  8
I-SC
  5
259B
 10
1347.383782
 20
-211.332793
 30
167.626937
 70
    64
  0
VERTEX
  8
I-SC
  5
259C
 10
1414.436961
 20
-211.332793
 30
181.037573
 70
    64
  0
VERTEX
  8
I-SC
  5
259D
 10
1479.150661
 20
-211.332793
 30
203.130809
 70
    64
  0
VERTEX
  8
I-SC
  5
259E
 10
1056.073738
 20
-211.332793
 30
147.746193
 70
    64
  0
VERTEX
  8
I-SC
  5
259F
 10
1128.254403
 20
-211.332793
 30
123.103738
 70
    64
  0
VERTEX
  8
I-SC
  5
25A0
 10
1203.044488
 20
-211.332793
 30
108.145721
 70
    64
  0
VERTEX
  8
I-SC
  5
25A1
 10
1279.150661
 20
-211.332793
 30
103.130809
 70
    64
  0
VERTEX
  8
I-SC
  5
25A2
 10
1355.256835
 20
-211.332793
 30
108.145721
 70
    64
  0
VERTEX
  8
I-SC
  5
25A3
 10
1430.046919
 20
-211.332793
 30
123.103738
 70
    64
  0
VERTEX
  8
I-SC
  5
25A4
 10
1502.227584
 20
-211.332793
 30
147.746193
 70
    64
  0
SEQEND
  8
I-SC
  5
25A5
  0
POLYLINE
  8
I-SC
  5
25A6
 66
     1
 10
0.0
 20
0.0
 30
0.0
 70
    16
 71
     2
 72
     7
  0
VERTEX
  8
I-SC
  5
25A7
 10
1079.150661
 20
-231.332793
 30
203.130809
 70
    64
  0
VERTEX
  8
I-SC
  5
25A8
 10
1143.864361
 20
-231.332793
 30
181.037573
 70
    64
  0
VERTEX
  8
I-SC
  5
25A9
 10
1210.91754
 20
-231.332793
 30
167.626937
 70
    64
  0
VERTEX
  8
I-SC
  5
25AA
 10
1279.150661
 20
-231.332793
 30
163.130809
 70
    64
  0
VERTEX
  8
I-SC
  5
25AB
 10
1347.383782
 20
-231.332793
 30
167.626937
 70
    64
  0
VERTEX
  8
I-SC
  5
25AC
 10
1414.436961
 20
-231.332793
 30
181.037573
 70
    64
  0
VERTEX
  8
I-SC
  5
25AD
 10
1479.150661
 20
-231.332793
 30
203.130809
 70
    64
  0
VERTEX
  8
I-SC
  5
25AE
 10
1056.073738
 20
-231.332793
 30
147.746193
 70
    64
  0
VERTEX
  8
I-SC
  5
25AF
 10
1128.254403
 20
-231.332793
 30
123.103738
 70
    64
  0
VERTEX
  8
I-SC
  5
25B0
 10
1203.044488
 20
-231.332793
 30
108.145721
 70
    64
  0
VERTEX
  8
I-SC
  5
25B1
 10
1279.150661
 20
-231.332793
 30
103.130809
 70
    64
  0
VERTEX
  8
I-SC
  5
25B2
 10
1355.256835
 20
-231.332793
 30
108.145721
 70
    64
  0
VERTEX
  8
I-SC
  5
25B3
 10
1430.046919
 20
-231.332793
 30
123.103738
 70
    64
  0
VERTEX
  8
I-SC
  5
25B4
 10
1502.227584
 20
-231.332793
 30
147.746193
 70
    64
  0
SEQEND
  8
I-SC
  5
25B5
  0
ARC
  8
I-SC
  5
25B6
 10
1279.150661
 20
683.130809
 30
231.332793
 40
580.0
 50
247.380135
 51
292.619865
210
0.0
220
-1.0
230
0.0
  0
POLYLINE
  8
I-SC
  5
25B7
 66
     1
 10
0.0
 20
0.0
 30
0.0
 70
    16
 71
     2
 72
     7
  0
VERTEX
  8
I-SC
  5
25B8
 10
1056.073738
 20
-211.332793
 30
147.746193
 70
    64
  0
VERTEX
  8
I-SC
  5
25B9
 10
1128.254403
 20
-211.332793
 30
123.103738
 70
    64
  0
VERTEX
  8
I-SC
  5
25BA
 10
1203.044488
 20
-211.332793
 30
108.145721
 70
    64
  0
VERTEX
  8
I-SC
  5
25BB
 10
1279.150661
 20
-211.332793
 30
103.130809
 70
    64
  0
VERTEX
  8
I-SC
  5
25BC
 10
1355.256835
 20
-211.332793
 30
108.145721
 70
    64
  0
VERTEX
  8
I-SC
  5
25BD
 10
1430.046919
 20
-211.332793
 30
123.103738
 70
    64
  0
VERTEX
  8
I-SC
  5
25BE
 10
1502.227584
 20
-211.332793
 30
147.746193
 70
    64
  0
VERTEX
  8
I-SC
  5
25BF
 10
1056.073738
 20
-231.332793
 30
147.746193
 70
    64
  0
VERTEX
  8
I-SC
  5
25C0
 10
1128.254403
 20
-231.332793
 30
123.103738
 70
    64
  0
VERTEX
  8
I-SC
  5
25C1
 10
1203.044488
 20
-231.332793
 30
108.145721
 70
    64
  0
VERTEX
  8
I-SC
  5
25C2
 10
1279.150661
 20
-231.332793
 30
103.130809
 70
    64
  0
VERTEX
  8
I-SC
  5
25C3
 10
1355.256835
 20
-231.332793
 30
108.145721
 70
    64
  0
VERTEX
  8
I-SC
  5
25C4
 10
1430.046919
 20
-231.332793
 30
123.103738
 70
    64
  0
VERTEX
  8
I-SC
  5
25C5
 10
1502.227584
 20
-231.332793
 30
147.746193
 70
    64
  0
SEQEND
  8
I-SC
  5
25C6
  0
POLYLINE
  8
I-SC
  5
25C7
 66
     1
 10
0.0
 20
0.0
 30
0.0
 70
    16
 71
     2
 72
     7
  0
VERTEX
  8
I-SC
  5
25C8
 10
1079.150661
 20
-211.332793
 30
203.130809
 70
    64
  0
VERTEX
  8
I-SC
  5
25C9
 10
1143.864361
 20
-211.332793
 30
181.037573
 70
    64
  0
VERTEX
  8
I-SC
  5
25CA
 10
1210.91754
 20
-211.332793
 30
167.626937
 70
    64
  0
VERTEX
  8
I-SC
  5
25CB
 10
1279.150661
 20
-211.332793
 30
163.130809
 70
    64
  0
VERTEX
  8
I-SC
  5
25CC
 10
1347.383782
 20
-211.332793
 30
167.626937
 70
    64
  0
VERTEX
  8
I-SC
  5
25CD
 10
1414.436961
 20
-211.332793
 30
181.037573
 70
    64
  0
VERTEX
  8
I-SC
  5
25CE
 10
1479.150661
 20
-211.332793
 30
203.130809
 70
    64
  0
VERTEX
  8
I-SC
  5
25CF
 10
1079.150661
 20
-231.332793
 30
203.130809
 70
    64
  0
VERTEX
  8
I-SC
  5
25D0
 10
1143.864361
 20
-231.332793
 30
181.037573
 70
    64
  0
VERTEX
  8
I-SC
  5
25D1
 10
1210.91754
 20
-231.332793
 30
167.626937
 70
    64
  0
VERTEX
  8
I-SC
  5
25D2
 10
1279.150661
 20
-231.332793
 30
163.130809
 70
    64
  0
VERTEX
  8
I-SC
  5
25D3
 10
1347.383782
 20
-231.332793
 30
167.626937
 70
    64
  0
VERTEX
  8
I-SC
  5
25D4
 10
1414.436961
 20
-231.332793
 30
181.037573
 70
    64
  0
VERTEX
  8
I-SC
  5
25D5
 10
1479.150661
 20
-231.332793
 30
203.130809
 70
    64
  0
SEQEND
  8
I-SC
  5
25D6
  0
ARC
  8
I-SC
  5
25D7
 10
1279.150661
 20
683.130809
 30
211.332793
 40
520.0
 50
247.380135
 51
292.619865
210
0.0
220
-1.0
230
0.0
  0
ARC
  8
I-SC
  5
25D8
 10
1279.150661
 20
683.130809
 30
231.332793
 40
580.0
 50
247.380135
 51
292.619865
210
0.0
220
-1.0
230
0.0
  0
ARC
  8
I-SC
  5
25D9
 10
1279.150661
 20
683.130809
 30
231.332793
 40
520.0
 50
247.380135
 51
292.619865
210
0.0
220
-1.0
230
0.0
  0
POLYLINE
  8
I-SC
  5
25DA
 66
     1
 10
0.0
 20
0.0
 30
0.0
 70
    16
 71
     2
 72
     7
  0
VERTEX
  8
I-SC
  5
25DB
 10
479.150661
 20
-211.332793
 30
203.130809
 70
    64
  0
VERTEX
  8
I-SC
  5
25DC
 10
543.864361
 20
-211.332793
 30
181.037573
 70
    64
  0
VERTEX
  8
I-SC
  5
25DD
 10
610.91754
 20
-211.332793
 30
167.626937
 70
    64
  0
VERTEX
  8
I-SC
  5
25DE
 10
679.150661
 20
-211.332793
 30
163.130809
 70
    64
  0
VERTEX
  8
I-SC
  5
25DF
 10
747.383782
 20
-211.332793
 30
167.626937
 70
    64
  0
VERTEX
  8
I-SC
  5
25E0
 10
814.436961
 20
-211.332793
 30
181.037573
 70
    64
  0
VERTEX
  8
I-SC
  5
25E1
 10
879.150661
 20
-211.332793
 30
203.130809
 70
    64
  0
VERTEX
  8
I-SC
  5
25E2
 10
456.073738
 20
-211.332793
 30
147.746193
 70
    64
  0
VERTEX
  8
I-SC
  5
25E3
 10
528.254403
 20
-211.332793
 30
123.103738
 70
    64
  0
VERTEX
  8
I-SC
  5
25E4
 10
603.044488
 20
-211.332793
 30
108.145721
 70
    64
  0
VERTEX
  8
I-SC
  5
25E5
 10
679.150661
 20
-211.332793
 30
103.130809
 70
    64
  0
VERTEX
  8
I-SC
  5
25E6
 10
755.256835
 20
-211.332793
 30
108.145721
 70
    64
  0
VERTEX
  8
I-SC
  5
25E7
 10
830.046919
 20
-211.332793
 30
123.103738
 70
    64
  0
VERTEX
  8
I-SC
  5
25E8
 10
902.227584
 20
-211.332793
 30
147.746193
 70
    64
  0
SEQEND
  8
I-SC
  5
25E9
  0
POLYLINE
  8
I-SC
  5
25EA
 66
     1
 10
0.0
 20
0.0
 30
0.0
 70
    16
 71
     2
 72
     7
  0
VERTEX
  8
I-SC
  5
25EB
 10
479.150661
 20
-231.332793
 30
203.130809
 70
    64
  0
VERTEX
  8
I-SC
  5
25EC
 10
543.864361
 20
-231.332793
 30
181.037573
 70
    64
  0
VERTEX
  8
I-SC
  5
25ED
 10
610.91754
 20
-231.332793
 30
167.626937
 70
    64
  0
VERTEX
  8
I-SC
  5
25EE
 10
679.150661
 20
-231.332793
 30
163.130809
 70
    64
  0
VERTEX
  8
I-SC
  5
25EF
 10
747.383782
 20
-231.332793
 30
167.626937
 70
    64
  0
VERTEX
  8
I-SC
  5
25F0
 10
814.436961
 20
-231.332793
 30
181.037573
 70
    64
  0
VERTEX
  8
I-SC
  5
25F1
 10
879.150661
 20
-231.332793
 30
203.130809
 70
    64
  0
VERTEX
  8
I-SC
  5
25F2
 10
456.073738
 20
-231.332793
 30
147.746193
 70
    64
  0
VERTEX
  8
I-SC
  5
25F3
 10
528.254403
 20
-231.332793
 30
123.103738
 70
    64
  0
VERTEX
  8
I-SC
  5
25F4
 10
603.044488
 20
-231.332793
 30
108.145721
 70
    64
  0
VERTEX
  8
I-SC
  5
25F5
 10
679.150661
 20
-231.332793
 30
103.130809
 70
    64
  0
VERTEX
  8
I-SC
  5
25F6
 10
755.256835
 20
-231.332793
 30
108.145721
 70
    64
  0
VERTEX
  8
I-SC
  5
25F7
 10
830.046919
 20
-231.332793
 30
123.103738
 70
    64
  0
VERTEX
  8
I-SC
  5
25F8
 10
902.227584
 20
-231.332793
 30
147.746193
 70
    64
  0
SEQEND
  8
I-SC
  5
25F9
  0
ARC
  8
I-SC
  5
25FA
 10
679.150661
 20
683.130809
 30
231.332793
 40
580.0
 50
247.380135
 51
292.619865
210
0.0
220
-1.0
230
0.0
  0
POLYLINE
  8
I-SC
  5
25FB
 66
     1
 10
0.0
 20
0.0
 30
0.0
 70
    16
 71
     2
 72
     7
  0
VERTEX
  8
I-SC
  5
25FC
 10
456.073738
 20
-211.332793
 30
147.746193
 70
    64
  0
VERTEX
  8
I-SC
  5
25FD
 10
528.254403
 20
-211.332793
 30
123.103738
 70
    64
  0
VERTEX
  8
I-SC
  5
25FE
 10
603.044488
 20
-211.332793
 30
108.145721
 70
    64
  0
VERTEX
  8
I-SC
  5
25FF
 10
679.150661
 20
-211.332793
 30
103.130809
 70
    64
  0
VERTEX
  8
I-SC
  5
2600
 10
755.256835
 20
-211.332793
 30
108.145721
 70
    64
  0
VERTEX
  8
I-SC
  5
2601
 10
830.046919
 20
-211.332793
 30
123.103738
 70
    64
  0
VERTEX
  8
I-SC
  5
2602
 10
902.227584
 20
-211.332793
 30
147.746193
 70
    64
  0
VERTEX
  8
I-SC
  5
2603
 10
456.073738
 20
-231.332793
 30
147.746193
 70
    64
  0
VERTEX
  8
I-SC
  5
2604
 10
528.254403
 20
-231.332793
 30
123.103738
 70
    64
  0
VERTEX
  8
I-SC
  5
2605
 10
603.044488
 20
-231.332793
 30
108.145721
 70
    64
  0
VERTEX
  8
I-SC
  5
2606
 10
679.150661
 20
-231.332793
 30
103.130809
 70
    64
  0
VERTEX
  8
I-SC
  5
2607
 10
755.256835
 20
-231.332793
 30
108.145721
 70
    64
  0
VERTEX
  8
I-SC
  5
2608
 10
830.046919
 20
-231.332793
 30
123.103738
 70
    64
  0
VERTEX
  8
I-SC
  5
2609
 10
902.227584
 20
-231.332793
 30
147.746193
 70
    64
  0
SEQEND
  8
I-SC
  5
260A
  0
ARC
  8
I-SC
  5
260B
 10
679.150661
 20
683.130809
 30
231.332793
 40
580.0
 50
247.380135
 51
292.619865
210
0.0
220
-1.0
230
0.0
  0
POLYLINE
  8
I-SC
  5
260C
 66
     1
 10
0.0
 20
0.0
 30
0.0
 70
    16
 71
     2
 72
     7
  0
VERTEX
  8
I-SC
  5
260D
 10
479.150661
 20
-211.332793
 30
203.130809
 70
    64
  0
VERTEX
  8
I-SC
  5
260E
 10
543.864361
 20
-211.332793
 30
181.037573
 70
    64
  0
VERTEX
  8
I-SC
  5
260F
 10
610.91754
 20
-211.332793
 30
167.626937
 70
    64
  0
VERTEX
  8
I-SC
  5
2610
 10
679.150661
 20
-211.332793
 30
163.130809
 70
    64
  0
VERTEX
  8
I-SC
  5
2611
 10
747.383782
 20
-211.332793
 30
167.626937
 70
    64
  0
VERTEX
  8
I-SC
  5
2612
 10
814.436961
 20
-211.332793
 30
181.037573
 70
    64
  0
VERTEX
  8
I-SC
  5
2613
 10
879.150661
 20
-211.332793
 30
203.130809
 70
    64
  0
VERTEX
  8
I-SC
  5
2614
 10
479.150661
 20
-231.332793
 30
203.130809
 70
    64
  0
VERTEX
  8
I-SC
  5
2615
 10
543.864361
 20
-231.332793
 30
181.037573
 70
    64
  0
VERTEX
  8
I-SC
  5
2616
 10
610.91754
 20
-231.332793
 30
167.626937
 70
    64
  0
VERTEX
  8
I-SC
  5
2617
 10
679.150661
 20
-231.332793
 30
163.130809
 70
    64
  0
VERTEX
  8
I-SC
  5
2618
 10
747.383782
 20
-231.332793
 30
167.626937
 70
    64
  0
VERTEX
  8
I-SC
  5
2619
 10
814.436961
 20
-231.332793
 30
181.037573
 70
    64
  0
VERTEX
  8
I-SC
  5
261A
 10
879.150661
 20
-231.332793
 30
203.130809
 70
    64
  0
SEQEND
  8
I-SC
  5
261B
  0
ARC
  8
I-SC
  5
261C
 10
679.150661
 20
683.130809
 30
211.332793
 40
520.0
 50
247.380135
 51
292.619865
210
0.0
220
-1.0
230
0.0
  0
ARC
  8
I-SC
  5
261D
 10
679.150661
 20
683.130809
 30
231.332793
 40
520.0
 50
247.380135
 51
292.619865
210
0.0
220
-1.0
230
0.0
  0
POLYLINE
  8
I-SC
  5
261E
 66
     1
 10
0.0
 20
0.0
 30
0.0
 70
    16
 71
     2
 72
     7
  0
VERTEX
  8
I-SC
  5
261F
 10
379.150661
 20
-211.332793
 30
223.130809
 70
    64
  0
VERTEX
  8
I-SC
  5
2620
 10
396.245935
 20
-211.332793
 30
222.568184
 70
    64
  0
VERTEX
  8
I-SC
  5
2621
 10
413.267222
 20
-211.332793
 30
220.882744
 70
    64
  0
VERTEX
  8
I-SC
  5
2622
 10
430.140856
 20
-211.332793
 30
218.081784
 70
    64
  0
VERTEX
  8
I-SC
  5
2623
 10
446.793811
 20
-211.332793
 30
214.177426
 70
    64
  0
VERTEX
  8
I-SC
  5
2624
 10
463.154015
 20
-211.332793
 30
209.186568
 70
    64
  0
VERTEX
  8
I-SC
  5
2625
 10
479.150661
 20
-211.332793
 30
203.130809
 70
    64
  0
VERTEX
  8
I-SC
  5
2626
 10
379.150661
 20
-231.332793
 30
223.130809
 70
    64
  0
VERTEX
  8
I-SC
  5
2627
 10
396.245935
 20
-231.332793
 30
222.568184
 70
    64
  0
VERTEX
  8
I-SC
  5
2628
 10
413.267222
 20
-231.332793
 30
220.882744
 70
    64
  0
VERTEX
  8
I-SC
  5
2629
 10
430.140856
 20
-231.332793
 30
218.081784
 70
    64
  0
VERTEX
  8
I-SC
  5
262A
 10
446.793811
 20
-231.332793
 30
214.177426
 70
    64
  0
VERTEX
  8
I-SC
  5
262B
 10
463.154015
 20
-231.332793
 30
209.186568
 70
    64
  0
VERTEX
  8
I-SC
  5
262C
 10
479.150661
 20
-231.332793
 30
203.130809
 70
    64
  0
SEQEND
  8
I-SC
  5
262D
  0
ARC
  8
I-SC
  5
262E
 10
379.150661
 20
-36.869191
 30
211.332793
 40
260.0
 50
67.380135
 51
90.0
210
0.0
220
-1.0
230
0.0
  0
ARC
  8
I-SC
  5
262F
 10
379.150661
 20
-36.869191
 30
231.332793
 40
260.0
 50
67.380135
 51
90.0
210
0.0
220
-1.0
230
0.0
  0
3DFACE
  8
I-SC
  5
2630
 10
229.150661
 20
-211.332793
 30
223.130809
 11
229.150661
 21
-231.332793
 31
223.130809
 12
229.150661
 22
-231.332793
 32
163.130809
 13
229.150661
 23
-211.332793
 33
163.130809
  0
POLYLINE
  8
I-SC
  5
2631
 66
     1
 10
0.0
 20
0.0
 30
0.0
 70
    16
 71
     2
 72
     7
  0
VERTEX
  8
I-SC
  5
2632
 10
379.150661
 20
-211.332793
 30
223.130809
 70
    64
  0
VERTEX
  8
I-SC
  5
2633
 10
396.245935
 20
-211.332793
 30
222.568184
 70
    64
  0
VERTEX
  8
I-SC
  5
2634
 10
413.267222
 20
-211.332793
 30
220.882744
 70
    64
  0
VERTEX
  8
I-SC
  5
2635
 10
430.140856
 20
-211.332793
 30
218.081784
 70
    64
  0
VERTEX
  8
I-SC
  5
2636
 10
446.793811
 20
-211.332793
 30
214.177426
 70
    64
  0
VERTEX
  8
I-SC
  5
2637
 10
463.154015
 20
-211.332793
 30
209.186568
 70
    64
  0
VERTEX
  8
I-SC
  5
2638
 10
479.150661
 20
-211.332793
 30
203.130809
 70
    64
  0
VERTEX
  8
I-SC
  5
2639
 10
379.150661
 20
-211.332793
 30
163.130809
 70
    64
  0
VERTEX
  8
I-SC
  5
263A
 10
392.300872
 20
-211.332793
 30
162.69802
 70
    64
  0
VERTEX
  8
I-SC
  5
263B
 10
405.394169
 20
-211.332793
 30
161.401528
 70
    64
  0
VERTEX
  8
I-SC
  5
263C
 10
418.373888
 20
-211.332793
 30
159.246944
 70
    64
  0
VERTEX
  8
I-SC
  5
263D
 10
431.183854
 20
-211.332793
 30
156.243591
 70
    64
  0
VERTEX
  8
I-SC
  5
263E
 10
443.768625
 20
-211.332793
 30
152.404469
 70
    64
  0
VERTEX
  8
I-SC
  5
263F
 10
456.073738
 20
-211.332793
 30
147.746193
 70
    64
  0
SEQEND
  8
I-SC
  5
2640
  0
3DFACE
  8
I-SC
  5
2641
 10
229.150661
 20
-211.332793
 30
223.130809
 11
379.150661
 21
-211.332793
 31
223.130809
 12
379.150661
 22
-211.332793
 32
163.130809
 13
229.150661
 23
-211.332793
 33
163.130809
  0
POLYLINE
  8
I-SC
  5
2642
 66
     1
 10
0.0
 20
0.0
 30
0.0
 70
    16
 71
     2
 72
     7
  0
VERTEX
  8
I-SC
  5
2643
 10
379.150661
 20
-231.332793
 30
223.130809
 70
    64
  0
VERTEX
  8
I-SC
  5
2644
 10
396.245935
 20
-231.332793
 30
222.568184
 70
    64
  0
VERTEX
  8
I-SC
  5
2645
 10
413.267222
 20
-231.332793
 30
220.882744
 70
    64
  0
VERTEX
  8
I-SC
  5
2646
 10
430.140856
 20
-231.332793
 30
218.081784
 70
    64
  0
VERTEX
  8
I-SC
  5
2647
 10
446.793811
 20
-231.332793
 30
214.177426
 70
    64
  0
VERTEX
  8
I-SC
  5
2648
 10
463.154015
 20
-231.332793
 30
209.186568
 70
    64
  0
VERTEX
  8
I-SC
  5
2649
 10
479.150661
 20
-231.332793
 30
203.130809
 70
    64
  0
VERTEX
  8
I-SC
  5
264A
 10
379.150661
 20
-231.332793
 30
163.130809
 70
    64
  0
VERTEX
  8
I-SC
  5
264B
 10
392.300872
 20
-231.332793
 30
162.69802
 70
    64
  0
VERTEX
  8
I-SC
  5
264C
 10
405.394169
 20
-231.332793
 30
161.401528
 70
    64
  0
VERTEX
  8
I-SC
  5
264D
 10
418.373888
 20
-231.332793
 30
159.246944
 70
    64
  0
VERTEX
  8
I-SC
  5
264E
 10
431.183854
 20
-231.332793
 30
156.243591
 70
    64
  0
VERTEX
  8
I-SC
  5
264F
 10
443.768625
 20
-231.332793
 30
152.404469
 70
    64
  0
VERTEX
  8
I-SC
  5
2650
 10
456.073738
 20
-231.332793
 30
147.746193
 70
    64
  0
SEQEND
  8
I-SC
  5
2651
  0
3DFACE
  8
I-SC
  5
2652
 10
229.150661
 20
-231.332793
 30
223.130809
 11
379.150661
 21
-231.332793
 31
223.130809
 12
379.150661
 22
-231.332793
 32
163.130809
 13
229.150661
 23
-231.332793
 33
163.130809
  0
LINE
  8
I-SC
  5
2653
 10
229.150661
 20
-231.332793
 30
223.130809
 11
229.150661
 21
-231.332793
 31
163.130809
210
0.0
220
-1.0
230
0.0
  0
LINE
  8
I-SC
  5
2654
 10
229.150661
 20
-231.332793
 30
163.130809
 11
379.150661
 21
-231.332793
 31
163.130809
210
0.0
220
-1.0
230
0.0
  0
3DFACE
  8
I-SC
  5
2655
 10
229.150661
 20
-211.332793
 30
163.130809
 11
229.150661
 21
-231.332793
 31
163.130809
 12
379.150661
 22
-231.332793
 32
163.130809
 13
379.150661
 23
-211.332793
 33
163.130809
  0
LINE
  8
I-SC
  5
2656
 10
229.150661
 20
-231.332793
 30
163.130809
 11
379.150661
 21
-231.332793
 31
163.130809
210
0.0
220
-1.0
230
0.0
  0
ARC
  8
I-SC
  5
2657
 10
379.150661
 20
-36.869191
 30
231.332793
 40
200.0
 50
67.380135
 51
90.0
210
0.0
220
-1.0
230
0.0
  0
ARC
  8
I-SC
  5
2658
 10
379.150661
 20
-36.869191
 30
231.332793
 40
200.0
 50
67.380135
 51
90.0
210
0.0
220
-1.0
230
0.0
  0
POLYLINE
  8
I-SC
  5
2659
 66
     1
 10
0.0
 20
0.0
 30
0.0
 70
    16
 71
     2
 72
     7
  0
VERTEX
  8
I-SC
  5
265A
 10
379.150661
 20
-211.332793
 30
163.130809
 70
    64
  0
VERTEX
  8
I-SC
  5
265B
 10
392.300872
 20
-211.332793
 30
162.69802
 70
    64
  0
VERTEX
  8
I-SC
  5
265C
 10
405.394169
 20
-211.332793
 30
161.401528
 70
    64
  0
VERTEX
  8
I-SC
  5
265D
 10
418.373888
 20
-211.332793
 30
159.246944
 70
    64
  0
VERTEX
  8
I-SC
  5
265E
 10
431.183854
 20
-211.332793
 30
156.243591
 70
    64
  0
VERTEX
  8
I-SC
  5
265F
 10
443.768625
 20
-211.332793
 30
152.404469
 70
    64
  0
VERTEX
  8
I-SC
  5
2660
 10
456.073738
 20
-211.332793
 30
147.746193
 70
    64
  0
VERTEX
  8
I-SC
  5
2661
 10
379.150661
 20
-231.332793
 30
163.130809
 70
    64
  0
VERTEX
  8
I-SC
  5
2662
 10
392.300872
 20
-231.332793
 30
162.69802
 70
    64
  0
VERTEX
  8
I-SC
  5
2663
 10
405.394169
 20
-231.332793
 30
161.401528
 70
    64
  0
VERTEX
  8
I-SC
  5
2664
 10
418.373888
 20
-231.332793
 30
159.246944
 70
    64
  0
VERTEX
  8
I-SC
  5
2665
 10
431.183854
 20
-231.332793
 30
156.243591
 70
    64
  0
VERTEX
  8
I-SC
  5
2666
 10
443.768625
 20
-231.332793
 30
152.404469
 70
    64
  0
VERTEX
  8
I-SC
  5
2667
 10
456.073738
 20
-231.332793
 30
147.746193
 70
    64
  0
SEQEND
  8
I-SC
  5
2668
  0
3DFACE
  8
I-SC
  5
2669
 10
229.150661
 20
-211.332793
 30
223.130809
 11
229.150661
 21
-231.332793
 31
223.130809
 12
379.150661
 22
-231.332793
 32
223.130809
 13
379.150661
 23
-211.332793
 33
223.130809
  0
LINE
  8
I-SC
  5
266A
 10
229.150661
 20
-211.332793
 30
223.130809
 11
379.150661
 21
-211.332793
 31
223.130809
210
0.0
220
-1.0
230
0.0
  0
LINE
  8
I-SC
  5
266B
 10
229.150661
 20
-231.332793
 30
223.130809
 11
379.150661
 21
-231.332793
 31
223.130809
210
0.0
220
-1.0
230
0.0
  0
POLYLINE
  8
I-SC
  5
266C
 66
     1
 10
0.0
 20
0.0
 30
0.0
 70
    16
 71
     2
 72
     7
  0
VERTEX
  8
I-SC
  5
266D
 10
879.150661
 20
-211.332793
 30
203.130809
 70
    64
  0
VERTEX
  8
I-SC
  5
266E
 10
911.507511
 20
-211.332793
 30
214.177426
 70
    64
  0
VERTEX
  8
I-SC
  5
266F
 10
945.034101
 20
-211.332793
 30
220.882744
 70
    64
  0
VERTEX
  8
I-SC
  5
2670
 10
979.150661
 20
-211.332793
 30
223.130809
 70
    64
  0
VERTEX
  8
I-SC
  5
2671
 10
1013.267222
 20
-211.332793
 30
220.882744
 70
    64
  0
VERTEX
  8
I-SC
  5
2672
 10
1046.793811
 20
-211.332793
 30
214.177426
 70
    64
  0
VERTEX
  8
I-SC
  5
2673
 10
1079.150661
 20
-211.332793
 30
203.130809
 70
    64
  0
VERTEX
  8
I-SC
  5
2674
 10
902.227584
 20
-211.332793
 30
147.746193
 70
    64
  0
VERTEX
  8
I-SC
  5
2675
 10
927.117469
 20
-211.332793
 30
156.243591
 70
    64
  0
VERTEX
  8
I-SC
  5
2676
 10
952.907153
 20
-211.332793
 30
161.401528
 70
    64
  0
VERTEX
  8
I-SC
  5
2677
 10
979.150661
 20
-211.332793
 30
163.130809
 70
    64
  0
VERTEX
  8
I-SC
  5
2678
 10
1005.394169
 20
-211.332793
 30
161.401528
 70
    64
  0
VERTEX
  8
I-SC
  5
2679
 10
1031.183854
 20
-211.332793
 30
156.243591
 70
    64
  0
VERTEX
  8
I-SC
  5
267A
 10
1056.073738
 20
-211.332793
 30
147.746193
 70
    64
  0
SEQEND
  8
I-SC
  5
267B
  0
POLYLINE
  8
I-SC
  5
267C
 66
     1
 10
0.0
 20
0.0
 30
0.0
 70
    16
 71
     2
 72
     7
  0
VERTEX
  8
I-SC
  5
267D
 10
879.150661
 20
-231.332793
 30
203.130809
 70
    64
  0
VERTEX
  8
I-SC
  5
267E
 10
911.507511
 20
-231.332793
 30
214.177426
 70
    64
  0
VERTEX
  8
I-SC
  5
267F
 10
945.034101
 20
-231.332793
 30
220.882744
 70
    64
  0
VERTEX
  8
I-SC
  5
2680
 10
979.150661
 20
-231.332793
 30
223.130809
 70
    64
  0
VERTEX
  8
I-SC
  5
2681
 10
1013.267222
 20
-231.332793
 30
220.882744
 70
    64
  0
VERTEX
  8
I-SC
  5
2682
 10
1046.793811
 20
-231.332793
 30
214.177426
 70
    64
  0
VERTEX
  8
I-SC
  5
2683
 10
1079.150661
 20
-231.332793
 30
203.130809
 70
    64
  0
VERTEX
  8
I-SC
  5
2684
 10
902.227584
 20
-231.332793
 30
147.746193
 70
    64
  0
VERTEX
  8
I-SC
  5
2685
 10
927.117469
 20
-231.332793
 30
156.243591
 70
    64
  0
VERTEX
  8
I-SC
  5
2686
 10
952.907153
 20
-231.332793
 30
161.401528
 70
    64
  0
VERTEX
  8
I-SC
  5
2687
 10
979.150661
 20
-231.332793
 30
163.130809
 70
    64
  0
VERTEX
  8
I-SC
  5
2688
 10
1005.394169
 20
-231.332793
 30
161.401528
 70
    64
  0
VERTEX
  8
I-SC
  5
2689
 10
1031.183854
 20
-231.332793
 30
156.243591
 70
    64
  0
VERTEX
  8
I-SC
  5
268A
 10
1056.073738
 20
-231.332793
 30
147.746193
 70
    64
  0
SEQEND
  8
I-SC
  5
268B
  0
POLYLINE
  8
I-SC
  5
268C
 66
     1
 10
0.0
 20
0.0
 30
0.0
 70
    16
 71
     2
 72
     7
  0
VERTEX
  8
I-SC
  5
268D
 10
879.150661
 20
-211.332793
 30
203.130809
 70
    64
  0
VERTEX
  8
I-SC
  5
268E
 10
911.507511
 20
-211.332793
 30
214.177426
 70
    64
  0
VERTEX
  8
I-SC
  5
268F
 10
945.034101
 20
-211.332793
 30
220.882744
 70
    64
  0
VERTEX
  8
I-SC
  5
2690
 10
979.150661
 20
-211.332793
 30
223.130809
 70
    64
  0
VERTEX
  8
I-SC
  5
2691
 10
1013.267222
 20
-211.332793
 30
220.882744
 70
    64
  0
VERTEX
  8
I-SC
  5
2692
 10
1046.793811
 20
-211.332793
 30
214.177426
 70
    64
  0
VERTEX
  8
I-SC
  5
2693
 10
1079.150661
 20
-211.332793
 30
203.130809
 70
    64
  0
VERTEX
  8
I-SC
  5
2694
 10
879.150661
 20
-231.332793
 30
203.130809
 70
    64
  0
VERTEX
  8
I-SC
  5
2695
 10
911.507511
 20
-231.332793
 30
214.177426
 70
    64
  0
VERTEX
  8
I-SC
  5
2696
 10
945.034101
 20
-231.332793
 30
220.882744
 70
    64
  0
VERTEX
  8
I-SC
  5
2697
 10
979.150661
 20
-231.332793
 30
223.130809
 70
    64
  0
VERTEX
  8
I-SC
  5
2698
 10
1013.267222
 20
-231.332793
 30
220.882744
 70
    64
  0
VERTEX
  8
I-SC
  5
2699
 10
1046.793811
 20
-231.332793
 30
214.177426
 70
    64
  0
VERTEX
  8
I-SC
  5
269A
 10
1079.150661
 20
-231.332793
 30
203.130809
 70
    64
  0
SEQEND
  8
I-SC
  5
269B
  0
ARC
  8
I-SC
  5
269C
 10
979.150661
 20
-36.869191
 30
211.332793
 40
260.0
 50
67.380135
 51
112.619865
210
0.0
220
-1.0
230
0.0
  0
ARC
  8
I-SC
  5
269D
 10
979.150661
 20
-36.869191
 30
231.332793
 40
260.0
 50
67.380135
 51
112.619865
210
0.0
220
-1.0
230
0.0
  0
ARC
  8
I-SC
  5
269E
 10
979.150661
 20
-36.869191
 30
231.332793
 40
200.0
 50
67.380135
 51
112.619865
210
0.0
220
-1.0
230
0.0
  0
POLYLINE
  8
I-SC
  5
269F
 66
     1
 10
0.0
 20
0.0
 30
0.0
 70
    16
 71
     2
 72
     7
  0
VERTEX
  8
I-SC
  5
26A0
 10
902.227584
 20
-211.332793
 30
147.746193
 70
    64
  0
VERTEX
  8
I-SC
  5
26A1
 10
927.117469
 20
-211.332793
 30
156.243591
 70
    64
  0
VERTEX
  8
I-SC
  5
26A2
 10
952.907153
 20
-211.332793
 30
161.401528
 70
    64
  0
VERTEX
  8
I-SC
  5
26A3
 10
979.150661
 20
-211.332793
 30
163.130809
 70
    64
  0
VERTEX
  8
I-SC
  5
26A4
 10
1005.394169
 20
-211.332793
 30
161.401528
 70
    64
  0
VERTEX
  8
I-SC
  5
26A5
 10
1031.183854
 20
-211.332793
 30
156.243591
 70
    64
  0
VERTEX
  8
I-SC
  5
26A6
 10
1056.073738
 20
-211.332793
 30
147.746193
 70
    64
  0
VERTEX
  8
I-SC
  5
26A7
 10
902.227584
 20
-231.332793
 30
147.746193
 70
    64
  0
VERTEX
  8
I-SC
  5
26A8
 10
927.117469
 20
-231.332793
 30
156.243591
 70
    64
  0
VERTEX
  8
I-SC
  5
26A9
 10
952.907153
 20
-231.332793
 30
161.401528
 70
    64
  0
VERTEX
  8
I-SC
  5
26AA
 10
979.150661
 20
-231.332793
 30
163.130809
 70
    64
  0
VERTEX
  8
I-SC
  5
26AB
 10
1005.394169
 20
-231.332793
 30
161.401528
 70
    64
  0
VERTEX
  8
I-SC
  5
26AC
 10
1031.183854
 20
-231.332793
 30
156.243591
 70
    64
  0
VERTEX
  8
I-SC
  5
26AD
 10
1056.073738
 20
-231.332793
 30
147.746193
 70
    64
  0
SEQEND
  8
I-SC
  5
26AE
  0
ARC
  8
I-SC
  5
26AF
 10
979.150661
 20
-36.869191
 30
231.332793
 40
200.0
 50
67.380135
 51
112.619865
210
0.0
220
-1.0
230
0.0
  0
3DFACE
  8
I-SC
  5
26B0
 10
2179.150661
 20
-211.332793
 30
223.130809
 11
2179.150661
 21
-211.332793
 31
163.130809
 12
2329.150661
 22
-211.332793
 32
163.130809
 13
2329.150661
 23
-211.332793
 33
223.130809
  0
3DFACE
  8
I-SC
  5
26B1
 10
2179.150661
 20
-231.332793
 30
223.130809
 11
2179.150661
 21
-231.332793
 31
163.130809
 12
2329.150661
 22
-231.332793
 32
163.130809
 13
2329.150661
 23
-231.332793
 33
223.130809
  0
3DFACE
  8
I-SC
  5
26B2
 10
2329.150661
 20
-211.332793
 30
223.130809
 11
2329.150661
 21
-231.332793
 31
223.130809
 12
2179.150661
 22
-231.332793
 32
223.130809
 13
2179.150661
 23
-211.332793
 33
223.130809
  0
LINE
  8
I-SC
  5
26B3
 10
2179.150661
 20
-211.332793
 30
223.130809
 11
2329.150661
 21
-211.332793
 31
223.130809
210
0.0
220
-1.0
230
0.0
  0
LINE
  8
I-SC
  5
26B4
 10
2179.150661
 20
-231.332793
 30
223.130809
 11
2329.150661
 21
-231.332793
 31
223.130809
210
0.0
220
-1.0
230
0.0
  0
LINE
  8
I-SC
  5
26B5
 10
2179.150661
 20
-231.332793
 30
163.130809
 11
2329.150661
 21
-231.332793
 31
163.130809
210
0.0
220
-1.0
230
0.0
  0
3DFACE
  8
I-SC
  5
26B6
 10
2179.150661
 20
-211.332793
 30
163.130809
 11
2179.150661
 21
-231.332793
 31
163.130809
 12
2329.150661
 22
-231.332793
 32
163.130809
 13
2329.150661
 23
-211.332793
 33
163.130809
  0
LINE
  8
I-SC
  5
26B7
 10
2179.150661
 20
-231.332793
 30
163.130809
 11
2329.150661
 21
-231.332793
 31
163.130809
210
0.0
220
-1.0
230
0.0
  0
POLYLINE
  8
I-SC
  5
26B8
 66
     1
 10
0.0
 20
0.0
 30
0.0
 70
    16
 71
     2
 72
     7
  0
VERTEX
  8
I-SC
  5
26B9
 10
1679.150661
 20
-211.332793
 30
203.130809
 70
    64
  0
VERTEX
  8
I-SC
  5
26BA
 10
1743.864361
 20
-211.332793
 30
181.037573
 70
    64
  0
VERTEX
  8
I-SC
  5
26BB
 10
1810.91754
 20
-211.332793
 30
167.626937
 70
    64
  0
VERTEX
  8
I-SC
  5
26BC
 10
1879.150661
 20
-211.332793
 30
163.130809
 70
    64
  0
VERTEX
  8
I-SC
  5
26BD
 10
1947.383782
 20
-211.332793
 30
167.626937
 70
    64
  0
VERTEX
  8
I-SC
  5
26BE
 10
2014.436961
 20
-211.332793
 30
181.037573
 70
    64
  0
VERTEX
  8
I-SC
  5
26BF
 10
2079.150661
 20
-211.332793
 30
203.130809
 70
    64
  0
VERTEX
  8
I-SC
  5
26C0
 10
1656.073738
 20
-211.332793
 30
147.746193
 70
    64
  0
VERTEX
  8
I-SC
  5
26C1
 10
1728.254403
 20
-211.332793
 30
123.103738
 70
    64
  0
VERTEX
  8
I-SC
  5
26C2
 10
1803.044488
 20
-211.332793
 30
108.145721
 70
    64
  0
VERTEX
  8
I-SC
  5
26C3
 10
1879.150661
 20
-211.332793
 30
103.130809
 70
    64
  0
VERTEX
  8
I-SC
  5
26C4
 10
1955.256835
 20
-211.332793
 30
108.145721
 70
    64
  0
VERTEX
  8
I-SC
  5
26C5
 10
2030.046919
 20
-211.332793
 30
123.103738
 70
    64
  0
VERTEX
  8
I-SC
  5
26C6
 10
2102.227584
 20
-211.332793
 30
147.746193
 70
    64
  0
SEQEND
  8
I-SC
  5
26C7
  0
POLYLINE
  8
I-SC
  5
26C8
 66
     1
 10
0.0
 20
0.0
 30
0.0
 70
    16
 71
     2
 72
     7
  0
VERTEX
  8
I-SC
  5
26C9
 10
1679.150661
 20
-231.332793
 30
203.130809
 70
    64
  0
VERTEX
  8
I-SC
  5
26CA
 10
1743.864361
 20
-231.332793
 30
181.037573
 70
    64
  0
VERTEX
  8
I-SC
  5
26CB
 10
1810.91754
 20
-231.332793
 30
167.626937
 70
    64
  0
VERTEX
  8
I-SC
  5
26CC
 10
1879.150661
 20
-231.332793
 30
163.130809
 70
    64
  0
VERTEX
  8
I-SC
  5
26CD
 10
1947.383782
 20
-231.332793
 30
167.626937
 70
    64
  0
VERTEX
  8
I-SC
  5
26CE
 10
2014.436961
 20
-231.332793
 30
181.037573
 70
    64
  0
VERTEX
  8
I-SC
  5
26CF
 10
2079.150661
 20
-231.332793
 30
203.130809
 70
    64
  0
VERTEX
  8
I-SC
  5
26D0
 10
1656.073738
 20
-231.332793
 30
147.746193
 70
    64
  0
VERTEX
  8
I-SC
  5
26D1
 10
1728.254403
 20
-231.332793
 30
123.103738
 70
    64
  0
VERTEX
  8
I-SC
  5
26D2
 10
1803.044488
 20
-231.332793
 30
108.145721
 70
    64
  0
VERTEX
  8
I-SC
  5
26D3
 10
1879.150661
 20
-231.332793
 30
103.130809
 70
    64
  0
VERTEX
  8
I-SC
  5
26D4
 10
1955.256835
 20
-231.332793
 30
108.145721
 70
    64
  0
VERTEX
  8
I-SC
  5
26D5
 10
2030.046919
 20
-231.332793
 30
123.103738
 70
    64
  0
VERTEX
  8
I-SC
  5
26D6
 10
2102.227584
 20
-231.332793
 30
147.746193
 70
    64
  0
SEQEND
  8
I-SC
  5
26D7
  0
ARC
  8
I-SC
  5
26D8
 10
1879.150661
 20
683.130809
 30
231.332793
 40
580.0
 50
247.380135
 51
292.619865
210
0.0
220
-1.0
230
0.0
  0
POLYLINE
  8
I-SC
  5
26D9
 66
     1
 10
0.0
 20
0.0
 30
0.0
 70
    16
 71
     2
 72
     7
  0
VERTEX
  8
I-SC
  5
26DA
 10
1656.073738
 20
-211.332793
 30
147.746193
 70
    64
  0
VERTEX
  8
I-SC
  5
26DB
 10
1728.254403
 20
-211.332793
 30
123.103738
 70
    64
  0
VERTEX
  8
I-SC
  5
26DC
 10
1803.044488
 20
-211.332793
 30
108.145721
 70
    64
  0
VERTEX
  8
I-SC
  5
26DD
 10
1879.150661
 20
-211.332793
 30
103.130809
 70
    64
  0
VERTEX
  8
I-SC
  5
26DE
 10
1955.256835
 20
-211.332793
 30
108.145721
 70
    64
  0
VERTEX
  8
I-SC
  5
26DF
 10
2030.046919
 20
-211.332793
 30
123.103738
 70
    64
  0
VERTEX
  8
I-SC
  5
26E0
 10
2102.227584
 20
-211.332793
 30
147.746193
 70
    64
  0
VERTEX
  8
I-SC
  5
26E1
 10
1656.073738
 20
-231.332793
 30
147.746193
 70
    64
  0
VERTEX
  8
I-SC
  5
26E2
 10
1728.254403
 20
-231.332793
 30
123.103738
 70
    64
  0
VERTEX
  8
I-SC
  5
26E3
 10
1803.044488
 20
-231.332793
 30
108.145721
 70
    64
  0
VERTEX
  8
I-SC
  5
26E4
 10
1879.150661
 20
-231.332793
 30
103.130809
 70
    64
  0
VERTEX
  8
I-SC
  5
26E5
 10
1955.256835
 20
-231.332793
 30
108.145721
 70
    64
  0
VERTEX
  8
I-SC
  5
26E6
 10
2030.046919
 20
-231.332793
 30
123.103738
 70
    64
  0
VERTEX
  8
I-SC
  5
26E7
 10
2102.227584
 20
-231.332793
 30
147.746193
 70
    64
  0
SEQEND
  8
I-SC
  5
26E8
  0
ARC
  8
I-SC
  5
26E9
 10
1879.150661
 20
683.130809
 30
231.332793
 40
580.0
 50
247.380135
 51
292.619865
210
0.0
220
-1.0
230
0.0
  0
POLYLINE
  8
I-SC
  5
26EA
 66
     1
 10
0.0
 20
0.0
 30
0.0
 70
    16
 71
     2
 72
     7
  0
VERTEX
  8
I-SC
  5
26EB
 10
1679.150661
 20
-211.332793
 30
203.130809
 70
    64
  0
VERTEX
  8
I-SC
  5
26EC
 10
1743.864361
 20
-211.332793
 30
181.037573
 70
    64
  0
VERTEX
  8
I-SC
  5
26ED
 10
1810.91754
 20
-211.332793
 30
167.626937
 70
    64
  0
VERTEX
  8
I-SC
  5
26EE
 10
1879.150661
 20
-211.332793
 30
163.130809
 70
    64
  0
VERTEX
  8
I-SC
  5
26EF
 10
1947.383782
 20
-211.332793
 30
167.626937
 70
    64
  0
VERTEX
  8
I-SC
  5
26F0
 10
2014.436961
 20
-211.332793
 30
181.037573
 70
    64
  0
VERTEX
  8
I-SC
  5
26F1
 10
2079.150661
 20
-211.332793
 30
203.130809
 70
    64
  0
VERTEX
  8
I-SC
  5
26F2
 10
1679.150661
 20
-231.332793
 30
203.130809
 70
    64
  0
VERTEX
  8
I-SC
  5
26F3
 10
1743.864361
 20
-231.332793
 30
181.037573
 70
    64
  0
VERTEX
  8
I-SC
  5
26F4
 10
1810.91754
 20
-231.332793
 30
167.626937
 70
    64
  0
VERTEX
  8
I-SC
  5
26F5
 10
1879.150661
 20
-231.332793
 30
163.130809
 70
    64
  0
VERTEX
  8
I-SC
  5
26F6
 10
1947.383782
 20
-231.332793
 30
167.626937
 70
    64
  0
VERTEX
  8
I-SC
  5
26F7
 10
2014.436961
 20
-231.332793
 30
181.037573
 70
    64
  0
VERTEX
  8
I-SC
  5
26F8
 10
2079.150661
 20
-231.332793
 30
203.130809
 70
    64
  0
SEQEND
  8
I-SC
  5
26F9
  0
ARC
  8
I-SC
  5
26FA
 10
1879.150661
 20
683.130809
 30
211.332793
 40
520.0
 50
247.380135
 51
292.619865
210
0.0
220
-1.0
230
0.0
  0
ARC
  8
I-SC
  5
26FB
 10
1879.150661
 20
683.130809
 30
231.332793
 40
520.0
 50
247.380135
 51
292.619865
210
0.0
220
-1.0
230
0.0
  0
POLYLINE
  8
I-SC
  5
26FC
 66
     1
 10
0.0
 20
0.0
 30
0.0
 70
    16
 71
     2
 72
     7
  0
VERTEX
  8
I-SC
  5
26FD
 10
1479.150661
 20
-211.332793
 30
203.130809
 70
    64
  0
VERTEX
  8
I-SC
  5
26FE
 10
1511.507511
 20
-211.332793
 30
214.177426
 70
    64
  0
VERTEX
  8
I-SC
  5
26FF
 10
1545.034101
 20
-211.332793
 30
220.882744
 70
    64
  0
VERTEX
  8
I-SC
  5
2700
 10
1579.150661
 20
-211.332793
 30
223.130809
 70
    64
  0
VERTEX
  8
I-SC
  5
2701
 10
1613.267222
 20
-211.332793
 30
220.882744
 70
    64
  0
VERTEX
  8
I-SC
  5
2702
 10
1646.793811
 20
-211.332793
 30
214.177426
 70
    64
  0
VERTEX
  8
I-SC
  5
2703
 10
1679.150661
 20
-211.332793
 30
203.130809
 70
    64
  0
VERTEX
  8
I-SC
  5
2704
 10
1479.150661
 20
-231.332793
 30
203.130809
 70
    64
  0
VERTEX
  8
I-SC
  5
2705
 10
1511.507511
 20
-231.332793
 30
214.177426
 70
    64
  0
VERTEX
  8
I-SC
  5
2706
 10
1545.034101
 20
-231.332793
 30
220.882744
 70
    64
  0
VERTEX
  8
I-SC
  5
2707
 10
1579.150661
 20
-231.332793
 30
223.130809
 70
    64
  0
VERTEX
  8
I-SC
  5
2708
 10
1613.267222
 20
-231.332793
 30
220.882744
 70
    64
  0
VERTEX
  8
I-SC
  5
2709
 10
1646.793811
 20
-231.332793
 30
214.177426
 70
    64
  0
VERTEX
  8
I-SC
  5
270A
 10
1679.150661
 20
-231.332793
 30
203.130809
 70
    64
  0
SEQEND
  8
I-SC
  5
270B
  0
ARC
  8
I-SC
  5
270C
 10
1579.150661
 20
-36.869191
 30
211.332793
 40
260.0
 50
67.380135
 51
112.619865
210
0.0
220
-1.0
230
0.0
  0
ARC
  8
I-SC
  5
270D
 10
1579.150661
 20
-36.869191
 30
231.332793
 40
260.0
 50
67.380135
 51
112.619865
210
0.0
220
-1.0
230
0.0
  0
POLYLINE
  8
I-SC
  5
270E
 66
     1
 10
0.0
 20
0.0
 30
0.0
 70
    16
 71
     2
 72
     7
  0
VERTEX
  8
I-SC
  5
270F
 10
1479.150661
 20
-211.332793
 30
203.130809
 70
    64
  0
VERTEX
  8
I-SC
  5
2710
 10
1511.507511
 20
-211.332793
 30
214.177426
 70
    64
  0
VERTEX
  8
I-SC
  5
2711
 10
1545.034101
 20
-211.332793
 30
220.882744
 70
    64
  0
VERTEX
  8
I-SC
  5
2712
 10
1579.150661
 20
-211.332793
 30
223.130809
 70
    64
  0
VERTEX
  8
I-SC
  5
2713
 10
1613.267222
 20
-211.332793
 30
220.882744
 70
    64
  0
VERTEX
  8
I-SC
  5
2714
 10
1646.793811
 20
-211.332793
 30
214.177426
 70
    64
  0
VERTEX
  8
I-SC
  5
2715
 10
1679.150661
 20
-211.332793
 30
203.130809
 70
    64
  0
VERTEX
  8
I-SC
  5
2716
 10
1502.227584
 20
-211.332793
 30
147.746193
 70
    64
  0
VERTEX
  8
I-SC
  5
2717
 10
1527.117469
 20
-211.332793
 30
156.243591
 70
    64
  0
VERTEX
  8
I-SC
  5
2718
 10
1552.907153
 20
-211.332793
 30
161.401528
 70
    64
  0
VERTEX
  8
I-SC
  5
2719
 10
1579.150661
 20
-211.332793
 30
163.130809
 70
    64
  0
VERTEX
  8
I-SC
  5
271A
 10
1605.394169
 20
-211.332793
 30
161.401528
 70
    64
  0
VERTEX
  8
I-SC
  5
271B
 10
1631.183854
 20
-211.332793
 30
156.243591
 70
    64
  0
VERTEX
  8
I-SC
  5
271C
 10
1656.073738
 20
-211.332793
 30
147.746193
 70
    64
  0
SEQEND
  8
I-SC
  5
271D
  0
POLYLINE
  8
I-SC
  5
271E
 66
     1
 10
0.0
 20
0.0
 30
0.0
 70
    16
 71
     2
 72
     7
  0
VERTEX
  8
I-SC
  5
271F
 10
1479.150661
 20
-231.332793
 30
203.130809
 70
    64
  0
VERTEX
  8
I-SC
  5
2720
 10
1511.507511
 20
-231.332793
 30
214.177426
 70
    64
  0
VERTEX
  8
I-SC
  5
2721
 10
1545.034101
 20
-231.332793
 30
220.882744
 70
    64
  0
VERTEX
  8
I-SC
  5
2722
 10
1579.150661
 20
-231.332793
 30
223.130809
 70
    64
  0
VERTEX
  8
I-SC
  5
2723
 10
1613.267222
 20
-231.332793
 30
220.882744
 70
    64
  0
VERTEX
  8
I-SC
  5
2724
 10
1646.793811
 20
-231.332793
 30
214.177426
 70
    64
  0
VERTEX
  8
I-SC
  5
2725
 10
1679.150661
 20
-231.332793
 30
203.130809
 70
    64
  0
VERTEX
  8
I-SC
  5
2726
 10
1502.227584
 20
-231.332793
 30
147.746193
 70
    64
  0
VERTEX
  8
I-SC
  5
2727
 10
1527.117469
 20
-231.332793
 30
156.243591
 70
    64
  0
VERTEX
  8
I-SC
  5
2728
 10
1552.907153
 20
-231.332793
 30
161.401528
 70
    64
  0
VERTEX
  8
I-SC
  5
2729
 10
1579.150661
 20
-231.332793
 30
163.130809
 70
    64
  0
VERTEX
  8
I-SC
  5
272A
 10
1605.394169
 20
-231.332793
 30
161.401528
 70
    64
  0
VERTEX
  8
I-SC
  5
272B
 10
1631.183854
 20
-231.332793
 30
156.243591
 70
    64
  0
VERTEX
  8
I-SC
  5
272C
 10
1656.073738
 20
-231.332793
 30
147.746193
 70
    64
  0
SEQEND
  8
I-SC
  5
272D
  0
ARC
  8
I-SC
  5
272E
 10
1579.150661
 20
-36.869191
 30
231.332793
 40
200.0
 50
67.380135
 51
112.619865
210
0.0
220
-1.0
230
0.0
  0
POLYLINE
  8
I-SC
  5
272F
 66
     1
 10
0.0
 20
0.0
 30
0.0
 70
    16
 71
     2
 72
     7
  0
VERTEX
  8
I-SC
  5
2730
 10
1502.227584
 20
-211.332793
 30
147.746193
 70
    64
  0
VERTEX
  8
I-SC
  5
2731
 10
1527.117469
 20
-211.332793
 30
156.243591
 70
    64
  0
VERTEX
  8
I-SC
  5
2732
 10
1552.907153
 20
-211.332793
 30
161.401528
 70
    64
  0
VERTEX
  8
I-SC
  5
2733
 10
1579.150661
 20
-211.332793
 30
163.130809
 70
    64
  0
VERTEX
  8
I-SC
  5
2734
 10
1605.394169
 20
-211.332793
 30
161.401528
 70
    64
  0
VERTEX
  8
I-SC
  5
2735
 10
1631.183854
 20
-211.332793
 30
156.243591
 70
    64
  0
VERTEX
  8
I-SC
  5
2736
 10
1656.073738
 20
-211.332793
 30
147.746193
 70
    64
  0
VERTEX
  8
I-SC
  5
2737
 10
1502.227584
 20
-231.332793
 30
147.746193
 70
    64
  0
VERTEX
  8
I-SC
  5
2738
 10
1527.117469
 20
-231.332793
 30
156.243591
 70
    64
  0
VERTEX
  8
I-SC
  5
2739
 10
1552.907153
 20
-231.332793
 30
161.401528
 70
    64
  0
VERTEX
  8
I-SC
  5
273A
 10
1579.150661
 20
-231.332793
 30
163.130809
 70
    64
  0
VERTEX
  8
I-SC
  5
273B
 10
1605.394169
 20
-231.332793
 30
161.401528
 70
    64
  0
VERTEX
  8
I-SC
  5
273C
 10
1631.183854
 20
-231.332793
 30
156.243591
 70
    64
  0
VERTEX
  8
I-SC
  5
273D
 10
1656.073738
 20
-231.332793
 30
147.746193
 70
    64
  0
SEQEND
  8
I-SC
  5
273E
  0
ARC
  8
I-SC
  5
273F
 10
1579.150661
 20
-36.869191
 30
231.332793
 40
200.0
 50
67.380135
 51
112.619865
210
0.0
220
-1.0
230
0.0
  0
POLYLINE
  8
I-SC
  5
2740
 66
     1
 10
0.0
 20
0.0
 30
0.0
 70
    16
 71
     2
 72
     7
  0
VERTEX
  8
I-SC
  5
2741
 10
2079.150661
 20
-211.332793
 30
203.130809
 70
    64
  0
VERTEX
  8
I-SC
  5
2742
 10
2095.147308
 20
-211.332793
 30
209.186568
 70
    64
  0
VERTEX
  8
I-SC
  5
2743
 10
2111.507511
 20
-211.332793
 30
214.177426
 70
    64
  0
VERTEX
  8
I-SC
  5
2744
 10
2128.160466
 20
-211.332793
 30
218.081784
 70
    64
  0
VERTEX
  8
I-SC
  5
2745
 10
2145.034101
 20
-211.332793
 30
220.882744
 70
    64
  0
VERTEX
  8
I-SC
  5
2746
 10
2162.055388
 20
-211.332793
 30
222.568184
 70
    64
  0
VERTEX
  8
I-SC
  5
2747
 10
2179.150661
 20
-211.332793
 30
223.130809
 70
    64
  0
VERTEX
  8
I-SC
  5
2748
 10
2079.150661
 20
-231.332793
 30
203.130809
 70
    64
  0
VERTEX
  8
I-SC
  5
2749
 10
2095.147308
 20
-231.332793
 30
209.186568
 70
    64
  0
VERTEX
  8
I-SC
  5
274A
 10
2111.507511
 20
-231.332793
 30
214.177426
 70
    64
  0
VERTEX
  8
I-SC
  5
274B
 10
2128.160466
 20
-231.332793
 30
218.081784
 70
    64
  0
VERTEX
  8
I-SC
  5
274C
 10
2145.034101
 20
-231.332793
 30
220.882744
 70
    64
  0
VERTEX
  8
I-SC
  5
274D
 10
2162.055388
 20
-231.332793
 30
222.568184
 70
    64
  0
VERTEX
  8
I-SC
  5
274E
 10
2179.150661
 20
-231.332793
 30
223.130809
 70
    64
  0
SEQEND
  8
I-SC
  5
274F
  0
ARC
  8
I-SC
  5
2750
 10
2179.150661
 20
-36.869191
 30
211.332793
 40
260.0
 50
90.0
 51
112.619865
210
0.0
220
-1.0
230
0.0
  0
ARC
  8
I-SC
  5
2751
 10
2179.150661
 20
-36.869191
 30
231.332793
 40
260.0
 50
90.0
 51
112.619865
210
0.0
220
-1.0
230
0.0
  0
POLYLINE
  8
I-SC
  5
2752
 66
     1
 10
0.0
 20
0.0
 30
0.0
 70
    16
 71
     2
 72
     7
  0
VERTEX
  8
I-SC
  5
2753
 10
2079.150661
 20
-211.332793
 30
203.130809
 70
    64
  0
VERTEX
  8
I-SC
  5
2754
 10
2095.147308
 20
-211.332793
 30
209.186568
 70
    64
  0
VERTEX
  8
I-SC
  5
2755
 10
2111.507511
 20
-211.332793
 30
214.177426
 70
    64
  0
VERTEX
  8
I-SC
  5
2756
 10
2128.160466
 20
-211.332793
 30
218.081784
 70
    64
  0
VERTEX
  8
I-SC
  5
2757
 10
2145.034101
 20
-211.332793
 30
220.882744
 70
    64
  0
VERTEX
  8
I-SC
  5
2758
 10
2162.055388
 20
-211.332793
 30
222.568184
 70
    64
  0
VERTEX
  8
I-SC
  5
2759
 10
2179.150661
 20
-211.332793
 30
223.130809
 70
    64
  0
VERTEX
  8
I-SC
  5
275A
 10
2102.227584
 20
-211.332793
 30
147.746193
 70
    64
  0
VERTEX
  8
I-SC
  5
275B
 10
2114.532697
 20
-211.332793
 30
152.404469
 70
    64
  0
VERTEX
  8
I-SC
  5
275C
 10
2127.117469
 20
-211.332793
 30
156.243591
 70
    64
  0
VERTEX
  8
I-SC
  5
275D
 10
2139.927434
 20
-211.332793
 30
159.246944
 70
    64
  0
VERTEX
  8
I-SC
  5
275E
 10
2152.907153
 20
-211.332793
 30
161.401528
 70
    64
  0
VERTEX
  8
I-SC
  5
275F
 10
2166.000451
 20
-211.332793
 30
162.69802
 70
    64
  0
VERTEX
  8
I-SC
  5
2760
 10
2179.150661
 20
-211.332793
 30
163.130809
 70
    64
  0
SEQEND
  8
I-SC
  5
2761
  0
POLYLINE
  8
I-SC
  5
2762
 66
     1
 10
0.0
 20
0.0
 30
0.0
 70
    16
 71
     2
 72
     7
  0
VERTEX
  8
I-SC
  5
2763
 10
2079.150661
 20
-231.332793
 30
203.130809
 70
    64
  0
VERTEX
  8
I-SC
  5
2764
 10
2095.147308
 20
-231.332793
 30
209.186568
 70
    64
  0
VERTEX
  8
I-SC
  5
2765
 10
2111.507511
 20
-231.332793
 30
214.177426
 70
    64
  0
VERTEX
  8
I-SC
  5
2766
 10
2128.160466
 20
-231.332793
 30
218.081784
 70
    64
  0
VERTEX
  8
I-SC
  5
2767
 10
2145.034101
 20
-231.332793
 30
220.882744
 70
    64
  0
VERTEX
  8
I-SC
  5
2768
 10
2162.055388
 20
-231.332793
 30
222.568184
 70
    64
  0
VERTEX
  8
I-SC
  5
2769
 10
2179.150661
 20
-231.332793
 30
223.130809
 70
    64
  0
VERTEX
  8
I-SC
  5
276A
 10
2102.227584
 20
-231.332793
 30
147.746193
 70
    64
  0
VERTEX
  8
I-SC
  5
276B
 10
2114.532697
 20
-231.332793
 30
152.404469
 70
    64
  0
VERTEX
  8
I-SC
  5
276C
 10
2127.117469
 20
-231.332793
 30
156.243591
 70
    64
  0
VERTEX
  8
I-SC
  5
276D
 10
2139.927434
 20
-231.332793
 30
159.246944
 70
    64
  0
VERTEX
  8
I-SC
  5
276E
 10
2152.907153
 20
-231.332793
 30
161.401528
 70
    64
  0
VERTEX
  8
I-SC
  5
276F
 10
2166.000451
 20
-231.332793
 30
162.69802
 70
    64
  0
VERTEX
  8
I-SC
  5
2770
 10
2179.150661
 20
-231.332793
 30
163.130809
 70
    64
  0
SEQEND
  8
I-SC
  5
2771
  0
ARC
  8
I-SC
  5
2772
 10
2179.150661
 20
-36.869191
 30
231.332793
 40
200.0
 50
90.0
 51
112.619865
210
0.0
220
-1.0
230
0.0
  0
ARC
  8
I-SC
  5
2773
 10
2179.150661
 20
-36.869191
 30
231.332793
 40
200.0
 50
90.0
 51
112.619865
210
0.0
220
-1.0
230
0.0
  0
POLYLINE
  8
I-SC
  5
2774
 66
     1
 10
0.0
 20
0.0
 30
0.0
 70
    16
 71
     2
 72
     7
  0
VERTEX
  8
I-SC
  5
2775
 10
2102.227584
 20
-211.332793
 30
147.746193
 70
    64
  0
VERTEX
  8
I-SC
  5
2776
 10
2114.532697
 20
-211.332793
 30
152.404469
 70
    64
  0
VERTEX
  8
I-SC
  5
2777
 10
2127.117469
 20
-211.332793
 30
156.243591
 70
    64
  0
VERTEX
  8
I-SC
  5
2778
 10
2139.927434
 20
-211.332793
 30
159.246944
 70
    64
  0
VERTEX
  8
I-SC
  5
2779
 10
2152.907153
 20
-211.332793
 30
161.401528
 70
    64
  0
VERTEX
  8
I-SC
  5
277A
 10
2166.000451
 20
-211.332793
 30
162.69802
 70
    64
  0
VERTEX
  8
I-SC
  5
277B
 10
2179.150661
 20
-211.332793
 30
163.130809
 70
    64
  0
VERTEX
  8
I-SC
  5
277C
 10
2102.227584
 20
-231.332793
 30
147.746193
 70
    64
  0
VERTEX
  8
I-SC
  5
277D
 10
2114.532697
 20
-231.332793
 30
152.404469
 70
    64
  0
VERTEX
  8
I-SC
  5
277E
 10
2127.117469
 20
-231.332793
 30
156.243591
 70
    64
  0
VERTEX
  8
I-SC
  5
277F
 10
2139.927434
 20
-231.332793
 30
159.246944
 70
    64
  0
VERTEX
  8
I-SC
  5
2780
 10
2152.907153
 20
-231.332793
 30
161.401528
 70
    64
  0
VERTEX
  8
I-SC
  5
2781
 10
2166.000451
 20
-231.332793
 30
162.69802
 70
    64
  0
VERTEX
  8
I-SC
  5
2782
 10
2179.150661
 20
-231.332793
 30
163.130809
 70
    64
  0
SEQEND
  8
I-SC
  5
2783
  0
3DFACE
  8
I-SC
  5
2784
 10
2329.150661
 20
-211.332793
 30
223.130809
 11
2329.150661
 21
-211.332793
 31
163.130809
 12
2329.150661
 22
-231.332793
 32
163.130809
 13
2329.150661
 23
-231.332793
 33
223.130809
  0
LINE
  8
I-SC
  5
2785
 10
2329.150661
 20
-231.332793
 30
223.130809
 11
2329.150661
 21
-231.332793
 31
163.130809
210
0.0
220
-1.0
230
0.0
  0
ENDBLK
  8
0
  5
2786
  0
ENDSEC
  0
SECTION
  2
ENTITIES
  0
VIEWPORT
  8
0
  5
22
 67
     1
 68
     1
 10
261.517699
 20
148.5
 30
0.0
 40
523.035398
 41
297.0
 69
     1
1001
ACAD
1000
MVIEW
1002
{
1070
    16
1010
0.0
1020
0.0
1030
0.0
1010
0.0
1020
0.0
1030
1.0
1040
0.0
1040
297.0
1040
261.517699
1040
148.5
1040
50.0
1040
0.0
1040
0.0
1070
     0
1070
   100
1070
     1
1070
     1
1070
     0
1070
     0
1070
     0
1070
     0
1040
0.0
1040
0.0
1040
0.0
1040
1.0
1040
1.0
1040
10.0
1040
10.0
1070
     0
1002
{
1002
}
1002
}
  0
ARC
  8
I-STEEL
  5
53
 10
424.257372
 20
188.664364
 30
241.332793
 40
12.0
 50
90.0
 51
270.0
210
0.0
220
-1.0
230
0.0
  0
LINE
  8
I-STEEL
  5
55
 10
424.257372
 20
-241.332793
 30
200.664364
 11
424.257372
 21
-241.332793
 31
176.664364
210
0.0
220
-1.0
230
0.0
  0
ARC
  8
I-STEEL
  5
56
 10
424.257372
 20
188.664364
 30
241.332793
 40
12.0
 50
270.0
 51
90.0
210
0.0
220
-1.0
230
0.0
  0
LINE
  8
I-STEEL
  5
59
 10
979.150661
 20
-241.332793
 30
205.130809
 11
979.150661
 21
-241.332793
 31
181.130809
210
0.0
220
-1.0
230
0.0
  0
LINE
  8
I-STEEL
  5
5C
 10
2134.04395
 20
-241.332793
 30
200.664364
 11
2134.04395
 21
-241.332793
 31
176.664364
210
0.0
220
-1.0
230
0.0
  0
LINE
  8
I-STEEL
  5
5E
 10
1579.150661
 20
-241.332793
 30
205.130809
 11
1579.150661
 21
-241.332793
 31
181.130809
210
0.0
220
-1.0
230
0.0
  0
INSERT
  8
I-SC
  5
2787
  2
AA
 10
0.0
 20
0.0
 30
0.0
  0
INSERT
  8
I-SC
  5
2791
  2
AA
 10
0.0
 20
42.0
 30
0.0
  0
INSERT
  8
I-SC
  5
2792
  2
AA
 10
0.0
 20
84.0
 30
0.0
  0
INSERT
  8
I-SC
  5
2793
  2
AA
 10
0.0
 20
126.0
 30
0.0
  0
INSERT
  8
I-SC
  5
2794
  2
AA
 10
0.0
 20
168.0
 30
0.0
  0
INSERT
  8
I-SC
  5
2795
  2
AA
 10
0.0
 20
210.0
 30
0.0
  0
INSERT
  8
I-SC
  5
2796
  2
AA
 10
0.0
 20
252.0
 30
0.0
  0
INSERT
  8
I-SC
  5
2797
  2
AA
 10
0.0
 20
294.0
 30
0.0
  0
INSERT
  8
I-SC
  5
2798
  2
AA
 10
0.0
 20
336.0
 30
0.0
  0
INSERT
  8
I-SC
  5
2799
  2
AA
 10
0.0
 20
378.0
 30
0.0
  0
POLYLINE
  8
I-STEEL
  5
279B
 66
     1
 10
0.0
 20
0.0
 30
0.0
 70
    16
 71
     2
 72
     7
  0
VERTEX
  8
I-STEEL
  5
279C
 10
424.257372
 20
-241.332793
 30
200.664364
 70
    64
  0
VERTEX
  8
I-STEEL
  5
279D
 10
418.257372
 20
-241.332793
 30
199.056669
 70
    64
  0
VERTEX
  8
I-STEEL
  5
279E
 10
413.865067
 20
-241.332793
 30
194.664364
 70
    64
  0
VERTEX
  8
I-STEEL
  5
279F
 10
412.257372
 20
-241.332793
 30
188.664364
 70
    64
  0
VERTEX
  8
I-STEEL
  5
27A0
 10
413.865067
 20
-241.332793
 30
182.664364
 70
    64
  0
VERTEX
  8
I-STEEL
  5
27A1
 10
418.257372
 20
-241.332793
 30
178.272059
 70
    64
  0
VERTEX
  8
I-STEEL
  5
27A2
 10
424.257372
 20
-241.332793
 30
176.664364
 70
    64
  0
VERTEX
  8
I-STEEL
  5
27A3
 10
424.257372
 20
176.667207
 30
200.664364
 70
    64
  0
VERTEX
  8
I-STEEL
  5
27A4
 10
418.257372
 20
176.667207
 30
199.056669
 70
    64
  0
VERTEX
  8
I-STEEL
  5
27A5
 10
413.865067
 20
176.667207
 30
194.664364
 70
    64
  0
VERTEX
  8
I-STEEL
  5
27A6
 10
412.257372
 20
176.667207
 30
188.664364
 70
    64
  0
VERTEX
  8
I-STEEL
  5
27A7
 10
413.865067
 20
176.667207
 30
182.664364
 70
    64
  0
VERTEX
  8
I-STEEL
  5
27A8
 10
418.257372
 20
176.667207
 30
178.272059
 70
    64
  0
VERTEX
  8
I-STEEL
  5
27A9
 10
424.257372
 20
176.667207
 30
176.664364
 70
    64
  0
SEQEND
  8
I-STEEL
  5
27AA
  0
POLYLINE
  8
I-STEEL
  5
27AB
 66
     1
 10
0.0
 20
0.0
 30
0.0
 70
    16
 71
     2
 72
     7
  0
VERTEX
  8
I-STEEL
  5
27AC
 10
424.257372
 20
-241.332793
 30
200.664364
 70
    64
  0
VERTEX
  8
I-STEEL
  5
27AD
 10
430.257372
 20
-241.332793
 30
199.056669
 70
    64
  0
VERTEX
  8
I-STEEL
  5
27AE
 10
434.649677
 20
-241.332793
 30
194.664364
 70
    64
  0
VERTEX
  8
I-STEEL
  5
27AF
 10
436.257372
 20
-241.332793
 30
188.664364
 70
    64
  0
VERTEX
  8
I-STEEL
  5
27B0
 10
434.649677
 20
-241.332793
 30
182.664364
 70
    64
  0
VERTEX
  8
I-STEEL
  5
27B1
 10
430.257372
 20
-241.332793
 30
178.272059
 70
    64
  0
VERTEX
  8
I-STEEL
  5
27B2
 10
424.257372
 20
-241.332793
 30
176.664364
 70
    64
  0
VERTEX
  8
I-STEEL
  5
27B3
 10
424.257372
 20
176.667207
 30
200.664364
 70
    64
  0
VERTEX
  8
I-STEEL
  5
27B4
 10
430.257372
 20
176.667207
 30
199.056669
 70
    64
  0
VERTEX
  8
I-STEEL
  5
27B5
 10
434.649677
 20
176.667207
 30
194.664364
 70
    64
  0
VERTEX
  8
I-STEEL
  5
27B6
 10
436.257372
 20
176.667207
 30
188.664364
 70
    64
  0
VERTEX
  8
I-STEEL
  5
27B7
 10
434.649677
 20
176.667207
 30
182.664364
 70
    64
  0
VERTEX
  8
I-STEEL
  5
27B8
 10
430.257372
 20
176.667207
 30
178.272059
 70
    64
  0
VERTEX
  8
I-STEEL
  5
27B9
 10
424.257372
 20
176.667207
 30
176.664364
 70
    64
  0
SEQEND
  8
I-STEEL
  5
27BA
  0
POLYLINE
  8
I-STEEL
  5
27BB
 66
     1
 10
0.0
 20
0.0
 30
0.0
 70
    16
 71
     2
 72
     7
  0
VERTEX
  8
I-STEEL
  5
27BC
 10
424.257372
 20
-241.332793
 30
200.664364
 70
    64
  0
VERTEX
  8
I-STEEL
  5
27BD
 10
418.257372
 20
-241.332793
 30
199.056669
 70
    64
  0
VERTEX
  8
I-STEEL
  5
27BE
 10
413.865067
 20
-241.332793
 30
194.664364
 70
    64
  0
VERTEX
  8
I-STEEL
  5
27BF
 10
412.257372
 20
-241.332793
 30
188.664364
 70
    64
  0
VERTEX
  8
I-STEEL
  5
27C0
 10
413.865067
 20
-241.332793
 30
182.664364
 70
    64
  0
VERTEX
  8
I-STEEL
  5
27C1
 10
418.257372
 20
-241.332793
 30
178.272059
 70
    64
  0
VERTEX
  8
I-STEEL
  5
27C2
 10
424.257372
 20
-241.332793
 30
176.664364
 70
    64
  0
VERTEX
  8
I-STEEL
  5
27C3
 10
424.257372
 20
-241.332793
 30
200.664364
 70
    64
  0
VERTEX
  8
I-STEEL
  5
27C4
 10
430.257372
 20
-241.332793
 30
199.056669
 70
    64
  0
VERTEX
  8
I-STEEL
  5
27C5
 10
434.649677
 20
-241.332793
 30
194.664364
 70
    64
  0
VERTEX
  8
I-STEEL
  5
27C6
 10
436.257372
 20
-241.332793
 30
188.664364
 70
    64
  0
VERTEX
  8
I-STEEL
  5
27C7
 10
434.649677
 20
-241.332793
 30
182.664364
 70
    64
  0
VERTEX
  8
I-STEEL
  5
27C8
 10
430.257372
 20
-241.332793
 30
178.272059
 70
    64
  0
VERTEX
  8
I-STEEL
  5
27C9
 10
424.257372
 20
-241.332793
 30
176.664364
 70
    64
  0
SEQEND
  8
I-STEEL
  5
27CA
  0
POLYLINE
  8
I-STEEL
  5
27CF
 66
     1
 10
0.0
 20
0.0
 30
0.0
 70
    16
 71
     2
 72
     7
  0
VERTEX
  8
I-STEEL
  5
27D0
 10
979.150661
 20
-241.332793
 30
205.130809
 70
    64
  0
VERTEX
  8
I-STEEL
  5
27D1
 10
973.150661
 20
-241.332793
 30
203.523113
 70
    64
  0
VERTEX
  8
I-STEEL
  5
27D2
 10
968.758356
 20
-241.332793
 30
199.130809
 70
    64
  0
VERTEX
  8
I-STEEL
  5
27D3
 10
967.150661
 20
-241.332793
 30
193.130809
 70
    64
  0
VERTEX
  8
I-STEEL
  5
27D4
 10
968.758356
 20
-241.332793
 30
187.130809
 70
    64
  0
VERTEX
  8
I-STEEL
  5
27D5
 10
973.150661
 20
-241.332793
 30
182.738504
 70
    64
  0
VERTEX
  8
I-STEEL
  5
27D6
 10
979.150661
 20
-241.332793
 30
181.130809
 70
    64
  0
VERTEX
  8
I-STEEL
  5
27D7
 10
979.150661
 20
-241.332793
 30
205.130809
 70
    64
  0
VERTEX
  8
I-STEEL
  5
27D8
 10
985.150661
 20
-241.332793
 30
203.523113
 70
    64
  0
VERTEX
  8
I-STEEL
  5
27D9
 10
989.542966
 20
-241.332793
 30
199.130809
 70
    64
  0
VERTEX
  8
I-STEEL
  5
27DA
 10
991.150661
 20
-241.332793
 30
193.130809
 70
    64
  0
VERTEX
  8
I-STEEL
  5
27DB
 10
989.542966
 20
-241.332793
 30
187.130809
 70
    64
  0
VERTEX
  8
I-STEEL
  5
27DC
 10
985.150661
 20
-241.332793
 30
182.738504
 70
    64
  0
VERTEX
  8
I-STEEL
  5
27DD
 10
979.150661
 20
-241.332793
 30
181.130809
 70
    64
  0
SEQEND
  8
I-STEEL
  5
27DE
  0
ARC
  8
I-STEEL
  5
27DF
 10
979.150661
 20
193.130809
 30
241.332793
 40
12.0
 50
270.0
 51
90.0
210
0.0
220
-1.0
230
0.0
  0
POLYLINE
  8
I-STEEL
  5
27E0
 66
     1
 10
0.0
 20
0.0
 30
0.0
 70
    16
 71
     2
 72
     7
  0
VERTEX
  8
I-STEEL
  5
27E1
 10
979.150661
 20
-241.332793
 30
205.130809
 70
    64
  0
VERTEX
  8
I-STEEL
  5
27E2
 10
985.150661
 20
-241.332793
 30
203.523113
 70
    64
  0
VERTEX
  8
I-STEEL
  5
27E3
 10
989.542966
 20
-241.332793
 30
199.130809
 70
    64
  0
VERTEX
  8
I-STEEL
  5
27E4
 10
991.150661
 20
-241.332793
 30
193.130809
 70
    64
  0
VERTEX
  8
I-STEEL
  5
27E5
 10
989.542966
 20
-241.332793
 30
187.130809
 70
    64
  0
VERTEX
  8
I-STEEL
  5
27E6
 10
985.150661
 20
-241.332793
 30
182.738504
 70
    64
  0
VERTEX
  8
I-STEEL
  5
27E7
 10
979.150661
 20
-241.332793
 30
181.130809
 70
    64
  0
VERTEX
  8
I-STEEL
  5
27E8
 10
979.150661
 20
176.667207
 30
205.130809
 70
    64
  0
VERTEX
  8
I-STEEL
  5
27E9
 10
985.150661
 20
176.667207
 30
203.523113
 70
    64
  0
VERTEX
  8
I-STEEL
  5
27EA
 10
989.542966
 20
176.667207
 30
199.130809
 70
    64
  0
VERTEX
  8
I-STEEL
  5
27EB
 10
991.150661
 20
176.667207
 30
193.130809
 70
    64
  0
VERTEX
  8
I-STEEL
  5
27EC
 10
989.542966
 20
176.667207
 30
187.130809
 70
    64
  0
VERTEX
  8
I-STEEL
  5
27ED
 10
985.150661
 20
176.667207
 30
182.738504
 70
    64
  0
VERTEX
  8
I-STEEL
  5
27EE
 10
979.150661
 20
176.667207
 30
181.130809
 70
    64
  0
SEQEND
  8
I-STEEL
  5
27EF
  0
LINE
  8
I-STEEL
  5
27F0
 10
979.150661
 20
-241.332793
 30
205.130809
 11
979.150661
 21
-241.332793
 31
181.130809
210
0.0
220
-1.0
230
0.0
  0
ARC
  8
I-STEEL
  5
27F1
 10
979.150661
 20
193.130809
 30
241.332793
 40
12.0
 50
90.0
 51
270.0
210
0.0
220
-1.0
230
0.0
  0
POLYLINE
  8
I-STEEL
  5
27F2
 66
     1
 10
0.0
 20
0.0
 30
0.0
 70
    16
 71
     2
 72
     7
  0
VERTEX
  8
I-STEEL
  5
27F3
 10
979.150661
 20
-241.332793
 30
205.130809
 70
    64
  0
VERTEX
  8
I-STEEL
  5
27F4
 10
973.150661
 20
-241.332793
 30
203.523113
 70
    64
  0
VERTEX
  8
I-STEEL
  5
27F5
 10
968.758356
 20
-241.332793
 30
199.130809
 70
    64
  0
VERTEX
  8
I-STEEL
  5
27F6
 10
967.150661
 20
-241.332793
 30
193.130809
 70
    64
  0
VERTEX
  8
I-STEEL
  5
27F7
 10
968.758356
 20
-241.332793
 30
187.130809
 70
    64
  0
VERTEX
  8
I-STEEL
  5
27F8
 10
973.150661
 20
-241.332793
 30
182.738504
 70
    64
  0
VERTEX
  8
I-STEEL
  5
27F9
 10
979.150661
 20
-241.332793
 30
181.130809
 70
    64
  0
VERTEX
  8
I-STEEL
  5
27FA
 10
979.150661
 20
176.667207
 30
205.130809
 70
    64
  0
VERTEX
  8
I-STEEL
  5
27FB
 10
973.150661
 20
176.667207
 30
203.523113
 70
    64
  0
VERTEX
  8
I-STEEL
  5
27FC
 10
968.758356
 20
176.667207
 30
199.130809
 70
    64
  0
VERTEX
  8
I-STEEL
  5
27FD
 10
967.150661
 20
176.667207
 30
193.130809
 70
    64
  0
VERTEX
  8
I-STEEL
  5
27FE
 10
968.758356
 20
176.667207
 30
187.130809
 70
    64
  0
VERTEX
  8
I-STEEL
  5
27FF
 10
973.150661
 20
176.667207
 30
182.738504
 70
    64
  0
VERTEX
  8
I-STEEL
  5
2800
 10
979.150661
 20
176.667207
 30
181.130809
 70
    64
  0
SEQEND
  8
I-STEEL
  5
2801
  0
POLYLINE
  8
I-STEEL
  5
2802
 66
     1
 10
0.0
 20
0.0
 30
0.0
 70
    16
 71
     2
 72
     7
  0
VERTEX
  8
I-STEEL
  5
2803
 10
1579.150661
 20
-241.332793
 30
205.130809
 70
    64
  0
VERTEX
  8
I-STEEL
  5
2804
 10
1573.150661
 20
-241.332793
 30
203.523113
 70
    64
  0
VERTEX
  8
I-STEEL
  5
2805
 10
1568.758356
 20
-241.332793
 30
199.130809
 70
    64
  0
VERTEX
  8
I-STEEL
  5
2806
 10
1567.150661
 20
-241.332793
 30
193.130809
 70
    64
  0
VERTEX
  8
I-STEEL
  5
2807
 10
1568.758356
 20
-241.332793
 30
187.130809
 70
    64
  0
VERTEX
  8
I-STEEL
  5
2808
 10
1573.150661
 20
-241.332793
 30
182.738504
 70
    64
  0
VERTEX
  8
I-STEEL
  5
2809
 10
1579.150661
 20
-241.332793
 30
181.130809
 70
    64
  0
VERTEX
  8
I-STEEL
  5
280A
 10
1579.150661
 20
-241.332793
 30
205.130809
 70
    64
  0
VERTEX
  8
I-STEEL
  5
280B
 10
1585.150661
 20
-241.332793
 30
203.523113
 70
    64
  0
VERTEX
  8
I-STEEL
  5
280C
 10
1589.542966
 20
-241.332793
 30
199.130809
 70
    64
  0
VERTEX
  8
I-STEEL
  5
280D
 10
1591.150661
 20
-241.332793
 30
193.130809
 70
    64
  0
VERTEX
  8
I-STEEL
  5
280E
 10
1589.542966
 20
-241.332793
 30
187.130809
 70
    64
  0
VERTEX
  8
I-STEEL
  5
280F
 10
1585.150661
 20
-241.332793
 30
182.738504
 70
    64
  0
VERTEX
  8
I-STEEL
  5
2810
 10
1579.150661
 20
-241.332793
 30
181.130809
 70
    64
  0
SEQEND
  8
I-STEEL
  5
2811
  0
ARC
  8
I-STEEL
  5
2812
 10
1579.150661
 20
193.130809
 30
241.332793
 40
12.0
 50
270.0
 51
90.0
210
0.0
220
-1.0
230
0.0
  0
POLYLINE
  8
I-STEEL
  5
2813
 66
     1
 10
0.0
 20
0.0
 30
0.0
 70
    16
 71
     2
 72
     7
  0
VERTEX
  8
I-STEEL
  5
2814
 10
1579.150661
 20
-241.332793
 30
205.130809
 70
    64
  0
VERTEX
  8
I-STEEL
  5
2815
 10
1585.150661
 20
-241.332793
 30
203.523113
 70
    64
  0
VERTEX
  8
I-STEEL
  5
2816
 10
1589.542966
 20
-241.332793
 30
199.130809
 70
    64
  0
VERTEX
  8
I-STEEL
  5
2817
 10
1591.150661
 20
-241.332793
 30
193.130809
 70
    64
  0
VERTEX
  8
I-STEEL
  5
2818
 10
1589.542966
 20
-241.332793
 30
187.130809
 70
    64
  0
VERTEX
  8
I-STEEL
  5
2819
 10
1585.150661
 20
-241.332793
 30
182.738504
 70
    64
  0
VERTEX
  8
I-STEEL
  5
281A
 10
1579.150661
 20
-241.332793
 30
181.130809
 70
    64
  0
VERTEX
  8
I-STEEL
  5
281B
 10
1579.150661
 20
176.667207
 30
205.130809
 70
    64
  0
VERTEX
  8
I-STEEL
  5
281C
 10
1585.150661
 20
176.667207
 30
203.523113
 70
    64
  0
VERTEX
  8
I-STEEL
  5
281D
 10
1589.542966
 20
176.667207
 30
199.130809
 70
    64
  0
VERTEX
  8
I-STEEL
  5
281E
 10
1591.150661
 20
176.667207
 30
193.130809
 70
    64
  0
VERTEX
  8
I-STEEL
  5
281F
 10
1589.542966
 20
176.667207
 30
187.130809
 70
    64
  0
VERTEX
  8
I-STEEL
  5
2820
 10
1585.150661
 20
176.667207
 30
182.738504
 70
    64
  0
VERTEX
  8
I-STEEL
  5
2821
 10
1579.150661
 20
176.667207
 30
181.130809
 70
    64
  0
SEQEND
  8
I-STEEL
  5
2822
  0
LINE
  8
I-STEEL
  5
2823
 10
1579.150661
 20
-241.332793
 30
205.130809
 11
1579.150661
 21
-241.332793
 31
181.130809
210
0.0
220
-1.0
230
0.0
  0
ARC
  8
I-STEEL
  5
2824
 10
1579.150661
 20
193.130809
 30
241.332793
 40
12.0
 50
90.0
 51
270.0
210
0.0
220
-1.0
230
0.0
  0
POLYLINE
  8
I-STEEL
  5
2825
 66
     1
 10
0.0
 20
0.0
 30
0.0
 70
    16
 71
     2
 72
     7
  0
VERTEX
  8
I-STEEL
  5
2826
 10
1579.150661
 20
-241.332793
 30
205.130809
 70
    64
  0
VERTEX
  8
I-STEEL
  5
2827
 10
1573.150661
 20
-241.332793
 30
203.523113
 70
    64
  0
VERTEX
  8
I-STEEL
  5
2828
 10
1568.758356
 20
-241.332793
 30
199.130809
 70
    64
  0
VERTEX
  8
I-STEEL
  5
2829
 10
1567.150661
 20
-241.332793
 30
193.130809
 70
    64
  0
VERTEX
  8
I-STEEL
  5
282A
 10
1568.758356
 20
-241.332793
 30
187.130809
 70
    64
  0
VERTEX
  8
I-STEEL
  5
282B
 10
1573.150661
 20
-241.332793
 30
182.738504
 70
    64
  0
VERTEX
  8
I-STEEL
  5
282C
 10
1579.150661
 20
-241.332793
 30
181.130809
 70
    64
  0
VERTEX
  8
I-STEEL
  5
282D
 10
1579.150661
 20
176.667207
 30
205.130809
 70
    64
  0
VERTEX
  8
I-STEEL
  5
282E
 10
1573.150661
 20
176.667207
 30
203.523113
 70
    64
  0
VERTEX
  8
I-STEEL
  5
282F
 10
1568.758356
 20
176.667207
 30
199.130809
 70
    64
  0
VERTEX
  8
I-STEEL
  5
2830
 10
1567.150661
 20
176.667207
 30
193.130809
 70
    64
  0
VERTEX
  8
I-STEEL
  5
2831
 10
1568.758356
 20
176.667207
 30
187.130809
 70
    64
  0
VERTEX
  8
I-STEEL
  5
2832
 10
1573.150661
 20
176.667207
 30
182.738504
 70
    64
  0
VERTEX
  8
I-STEEL
  5
2833
 10
1579.150661
 20
176.667207
 30
181.130809
 70
    64
  0
SEQEND
  8
I-STEEL
  5
2834
  0
POLYLINE
  8
I-STEEL
  5
2835
 66
     1
 10
0.0
 20
0.0
 30
0.0
 70
    16
 71
     2
 72
     7
  0
VERTEX
  8
I-STEEL
  5
2836
 10
2134.04395
 20
-241.332793
 30
200.664364
 70
    64
  0
VERTEX
  8
I-STEEL
  5
2837
 10
2128.04395
 20
-241.332793
 30
199.056669
 70
    64
  0
VERTEX
  8
I-STEEL
  5
2838
 10
2123.651645
 20
-241.332793
 30
194.664364
 70
    64
  0
VERTEX
  8
I-STEEL
  5
2839
 10
2122.04395
 20
-241.332793
 30
188.664364
 70
    64
  0
VERTEX
  8
I-STEEL
  5
283A
 10
2123.651645
 20
-241.332793
 30
182.664364
 70
    64
  0
VERTEX
  8
I-STEEL
  5
283B
 10
2128.04395
 20
-241.332793
 30
178.272059
 70
    64
  0
VERTEX
  8
I-STEEL
  5
283C
 10
2134.04395
 20
-241.332793
 30
176.664364
 70
    64
  0
VERTEX
  8
I-STEEL
  5
283D
 10
2134.04395
 20
-241.332793
 30
200.664364
 70
    64
  0
VERTEX
  8
I-STEEL
  5
283E
 10
2140.04395
 20
-241.332793
 30
199.056669
 70
    64
  0
VERTEX
  8
I-STEEL
  5
283F
 10
2144.436255
 20
-241.332793
 30
194.664364
 70
    64
  0
VERTEX
  8
I-STEEL
  5
2840
 10
2146.04395
 20
-241.332793
 30
188.664364
 70
    64
  0
VERTEX
  8
I-STEEL
  5
2841
 10
2144.436255
 20
-241.332793
 30
182.664364
 70
    64
  0
VERTEX
  8
I-STEEL
  5
2842
 10
2140.04395
 20
-241.332793
 30
178.272059
 70
    64
  0
VERTEX
  8
I-STEEL
  5
2843
 10
2134.04395
 20
-241.332793
 30
176.664364
 70
    64
  0
SEQEND
  8
I-STEEL
  5
2844
  0
ARC
  8
I-STEEL
  5
2845
 10
2134.04395
 20
188.664364
 30
241.332793
 40
12.0
 50
270.0
 51
90.0
210
0.0
220
-1.0
230
0.0
  0
POLYLINE
  8
I-STEEL
  5
2846
 66
     1
 10
0.0
 20
0.0
 30
0.0
 70
    16
 71
     2
 72
     7
  0
VERTEX
  8
I-STEEL
  5
2847
 10
2134.04395
 20
-241.332793
 30
200.664364
 70
    64
  0
VERTEX
  8
I-STEEL
  5
2848
 10
2140.04395
 20
-241.332793
 30
199.056669
 70
    64
  0
VERTEX
  8
I-STEEL
  5
2849
 10
2144.436255
 20
-241.332793
 30
194.664364
 70
    64
  0
VERTEX
  8
I-STEEL
  5
284A
 10
2146.04395
 20
-241.332793
 30
188.664364
 70
    64
  0
VERTEX
  8
I-STEEL
  5
284B
 10
2144.436255
 20
-241.332793
 30
182.664364
 70
    64
  0
VERTEX
  8
I-STEEL
  5
284C
 10
2140.04395
 20
-241.332793
 30
178.272059
 70
    64
  0
VERTEX
  8
I-STEEL
  5
284D
 10
2134.04395
 20
-241.332793
 30
176.664364
 70
    64
  0
VERTEX
  8
I-STEEL
  5
284E
 10
2134.04395
 20
176.667207
 30
200.664364
 70
    64
  0
VERTEX
  8
I-STEEL
  5
284F
 10
2140.04395
 20
176.667207
 30
199.056669
 70
    64
  0
VERTEX
  8
I-STEEL
  5
2850
 10
2144.436255
 20
176.667207
 30
194.664364
 70
    64
  0
VERTEX
  8
I-STEEL
  5
2851
 10
2146.04395
 20
176.667207
 30
188.664364
 70
    64
  0
VERTEX
  8
I-STEEL
  5
2852
 10
2144.436255
 20
176.667207
 30
182.664364
 70
    64
  0
VERTEX
  8
I-STEEL
  5
2853
 10
2140.04395
 20
176.667207
 30
178.272059
 70
    64
  0
VERTEX
  8
I-STEEL
  5
2854
 10
2134.04395
 20
176.667207
 30
176.664364
 70
    64
  0
SEQEND
  8
I-STEEL
  5
2855
  0
LINE
  8
I-STEEL
  5
2856
 10
2134.04395
 20
-241.332793
 30
200.664364
 11
2134.04395
 21
-241.332793
 31
176.664364
210
0.0
220
-1.0
230
0.0
  0
ARC
  8
I-STEEL
  5
2857
 10
2134.04395
 20
188.664364
 30
241.332793
 40
12.0
 50
90.0
 51
270.0
210
0.0
220
-1.0
230
0.0
  0
POLYLINE
  8
I-STEEL
  5
2858
 66
     1
 10
0.0
 20
0.0
 30
0.0
 70
    16
 71
     2
 72
     7
  0
VERTEX
  8
I-STEEL
  5
2859
 10
2134.04395
 20
-241.332793
 30
200.664364
 70
    64
  0
VERTEX
  8
I-STEEL
  5
285A
 10
2128.04395
 20
-241.332793
 30
199.056669
 70
    64
  0
VERTEX
  8
I-STEEL
  5
285B
 10
2123.651645
 20
-241.332793
 30
194.664364
 70
    64
  0
VERTEX
  8
I-STEEL
  5
285C
 10
2122.04395
 20
-241.332793
 30
188.664364
 70
    64
  0
VERTEX
  8
I-STEEL
  5
285D
 10
2123.651645
 20
-241.332793
 30
182.664364
 70
    64
  0
VERTEX
  8
I-STEEL
  5
285E
 10
2128.04395
 20
-241.332793
 30
178.272059
 70
    64
  0
VERTEX
  8
I-STEEL
  5
285F
 10
2134.04395
 20
-241.332793
 30
176.664364
 70
    64
  0
VERTEX
  8
I-STEEL
  5
2860
 10
2134.04395
 20
176.667207
 30
200.664364
 70
    64
  0
VERTEX
  8
I-STEEL
  5
2861
 10
2128.04395
 20
176.667207
 30
199.056669
 70
    64
  0
VERTEX
  8
I-STEEL
  5
2862
 10
2123.651645
 20
176.667207
 30
194.664364
 70
    64
  0
VERTEX
  8
I-STEEL
  5
2863
 10
2122.04395
 20
176.667207
 30
188.664364
 70
    64
  0
VERTEX
  8
I-STEEL
  5
2864
 10
2123.651645
 20
176.667207
 30
182.664364
 70
    64
  0
VERTEX
  8
I-STEEL
  5
2865
 10
2128.04395
 20
176.667207
 30
178.272059
 70
    64
  0
VERTEX
  8
I-STEEL
  5
2866
 10
2134.04395
 20
176.667207
 30
176.664364
 70
    64
  0
SEQEND
  8
I-STEEL
  5
2867
  0
POLYLINE
  8
I-STEEL
  5
2868
 66
     1
 10
0.0
 20
0.0
 30
0.0
 70
    16
 71
     2
 72
     7
  0
VERTEX
  8
I-STEEL
  5
2869
 10
424.257372
 20
176.667207
 30
200.664364
 70
    64
  0
VERTEX
  8
I-STEEL
  5
286A
 10
418.257372
 20
176.667207
 30
199.056669
 70
    64
  0
VERTEX
  8
I-STEEL
  5
286B
 10
413.865067
 20
176.667207
 30
194.664364
 70
    64
  0
VERTEX
  8
I-STEEL
  5
286C
 10
412.257372
 20
176.667207
 30
188.664364
 70
    64
  0
VERTEX
  8
I-STEEL
  5
286D
 10
413.865067
 20
176.667207
 30
182.664364
 70
    64
  0
VERTEX
  8
I-STEEL
  5
286E
 10
418.257372
 20
176.667207
 30
178.272059
 70
    64
  0
VERTEX
  8
I-STEEL
  5
286F
 10
424.257372
 20
176.667207
 30
176.664364
 70
    64
  0
VERTEX
  8
I-STEEL
  5
2870
 10
424.257372
 20
176.667207
 30
200.664364
 70
    64
  0
VERTEX
  8
I-STEEL
  5
2871
 10
430.257372
 20
176.667207
 30
199.056669
 70
    64
  0
VERTEX
  8
I-STEEL
  5
2872
 10
434.649677
 20
176.667207
 30
194.664364
 70
    64
  0
VERTEX
  8
I-STEEL
  5
2873
 10
436.257372
 20
176.667207
 30
188.664364
 70
    64
  0
VERTEX
  8
I-STEEL
  5
2874
 10
434.649677
 20
176.667207
 30
182.664364
 70
    64
  0
VERTEX
  8
I-STEEL
  5
2875
 10
430.257372
 20
176.667207
 30
178.272059
 70
    64
  0
VERTEX
  8
I-STEEL
  5
2876
 10
424.257372
 20
176.667207
 30
176.664364
 70
    64
  0
SEQEND
  8
I-STEEL
  5
2877
  0
POLYLINE
  8
I-STEEL
  5
2878
 66
     1
 10
0.0
 20
0.0
 30
0.0
 70
    16
 71
     2
 72
     7
  0
VERTEX
  8
I-STEEL
  5
2879
 10
979.150661
 20
176.667207
 30
205.130809
 70
    64
  0
VERTEX
  8
I-STEEL
  5
287A
 10
973.150661
 20
176.667207
 30
203.523113
 70
    64
  0
VERTEX
  8
I-STEEL
  5
287B
 10
968.758356
 20
176.667207
 30
199.130809
 70
    64
  0
VERTEX
  8
I-STEEL
  5
287C
 10
967.150661
 20
176.667207
 30
193.130809
 70
    64
  0
VERTEX
  8
I-STEEL
  5
287D
 10
968.758356
 20
176.667207
 30
187.130809
 70
    64
  0
VERTEX
  8
I-STEEL
  5
287E
 10
973.150661
 20
176.667207
 30
182.738504
 70
    64
  0
VERTEX
  8
I-STEEL
  5
287F
 10
979.150661
 20
176.667207
 30
181.130809
 70
    64
  0
VERTEX
  8
I-STEEL
  5
2880
 10
979.150661
 20
176.667207
 30
205.130809
 70
    64
  0
VERTEX
  8
I-STEEL
  5
2881
 10
985.150661
 20
176.667207
 30
203.523113
 70
    64
  0
VERTEX
  8
I-STEEL
  5
2882
 10
989.542966
 20
176.667207
 30
199.130809
 70
    64
  0
VERTEX
  8
I-STEEL
  5
2883
 10
991.150661
 20
176.667207
 30
193.130809
 70
    64
  0
VERTEX
  8
I-STEEL
  5
2884
 10
989.542966
 20
176.667207
 30
187.130809
 70
    64
  0
VERTEX
  8
I-STEEL
  5
2885
 10
985.150661
 20
176.667207
 30
182.738504
 70
    64
  0
VERTEX
  8
I-STEEL
  5
2886
 10
979.150661
 20
176.667207
 30
181.130809
 70
    64
  0
SEQEND
  8
I-STEEL
  5
2887
  0
POLYLINE
  8
I-STEEL
  5
2888
 66
     1
 10
0.0
 20
0.0
 30
0.0
 70
    16
 71
     2
 72
     7
  0
VERTEX
  8
I-STEEL
  5
2889
 10
1579.150661
 20
176.667207
 30
205.130809
 70
    64
  0
VERTEX
  8
I-STEEL
  5
288A
 10
1573.150661
 20
176.667207
 30
203.523113
 70
    64
  0
VERTEX
  8
I-STEEL
  5
288B
 10
1568.758356
 20
176.667207
 30
199.130809
 70
    64
  0
VERTEX
  8
I-STEEL
  5
288C
 10
1567.150661
 20
176.667207
 30
193.130809
 70
    64
  0
VERTEX
  8
I-STEEL
  5
288D
 10
1568.758356
 20
176.667207
 30
187.130809
 70
    64
  0
VERTEX
  8
I-STEEL
  5
288E
 10
1573.150661
 20
176.667207
 30
182.738504
 70
    64
  0
VERTEX
  8
I-STEEL
  5
288F
 10
1579.150661
 20
176.667207
 30
181.130809
 70
    64
  0
VERTEX
  8
I-STEEL
  5
2890
 10
1579.150661
 20
176.667207
 30
205.130809
 70
    64
  0
VERTEX
  8
I-STEEL
  5
2891
 10
1585.150661
 20
176.667207
 30
203.523113
 70
    64
  0
VERTEX
  8
I-STEEL
  5
2892
 10
1589.542966
 20
176.667207
 30
199.130809
 70
    64
  0
VERTEX
  8
I-STEEL
  5
2893
 10
1591.150661
 20
176.667207
 30
193.130809
 70
    64
  0
VERTEX
  8
I-STEEL
  5
2894
 10
1589.542966
 20
176.667207
 30
187.130809
 70
    64
  0
VERTEX
  8
I-STEEL
  5
2895
 10
1585.150661
 20
176.667207
 30
182.738504
 70
    64
  0
VERTEX
  8
I-STEEL
  5
2896
 10
1579.150661
 20
176.667207
 30
181.130809
 70
    64
  0
SEQEND
  8
I-STEEL
  5
2897
  0
POLYLINE
  8
I-STEEL
  5
2898
 66
     1
 10
0.0
 20
0.0
 30
0.0
 70
    16
 71
     2
 72
     7
  0
VERTEX
  8
I-STEEL
  5
2899
 10
2134.04395
 20
176.667207
 30
200.664364
 70
    64
  0
VERTEX
  8
I-STEEL
  5
289A
 10
2128.04395
 20
176.667207
 30
199.056669
 70
    64
  0
VERTEX
  8
I-STEEL
  5
289B
 10
2123.651645
 20
176.667207
 30
194.664364
 70
    64
  0
VERTEX
  8
I-STEEL
  5
289C
 10
2122.04395
 20
176.667207
 30
188.664364
 70
    64
  0
VERTEX
  8
I-STEEL
  5
289D
 10
2123.651645
 20
176.667207
 30
182.664364
 70
    64
  0
VERTEX
  8
I-STEEL
  5
289E
 10
2128.04395
 20
176.667207
 30
178.272059
 70
    64
  0
VERTEX
  8
I-STEEL
  5
289F
 10
2134.04395
 20
176.667207
 30
176.664364
 70
    64
  0
VERTEX
  8
I-STEEL
  5
28A0
 10
2134.04395
 20
176.667207
 30
200.664364
 70
    64
  0
VERTEX
  8
I-STEEL
  5
28A1
 10
2140.04395
 20
176.667207
 30
199.056669
 70
    64
  0
VERTEX
  8
I-STEEL
  5
28A2
 10
2144.436255
 20
176.667207
 30
194.664364
 70
    64
  0
VERTEX
  8
I-STEEL
  5
28A3
 10
2146.04395
 20
176.667207
 30
188.664364
 70
    64
  0
VERTEX
  8
I-STEEL
  5
28A4
 10
2144.436255
 20
176.667207
 30
182.664364
 70
    64
  0
VERTEX
  8
I-STEEL
  5
28A5
 10
2140.04395
 20
176.667207
 30
178.272059
 70
    64
  0
VERTEX
  8
I-STEEL
  5
28A6
 10
2134.04395
 20
176.667207
 30
176.664364
 70
    64
  0
SEQEND
  8
I-STEEL
  5
28A7
  0
POLYLINE
  8
I-STAND
 39
-500.0
  5
28A8
 66
     1
 10
0.0
 20
0.0
 30
188.664364
 70
     1
  0
VERTEX
  8
I-STAND
  5
28A9
 10
386.757372
 20
-211.332793
 30
188.664364
  0
VERTEX
  8
I-STAND
  5
28AA
 10
386.757372
 20
146.667207
 30
188.664364
  0
VERTEX
  8
I-STAND
  5
28AB
 10
461.757372
 20
146.667207
 30
188.664364
  0
VERTEX
  8
I-STAND
  5
28AC
 10
461.757372
 20
-211.332793
 30
188.664364
  0
SEQEND
  8
I-STAND
  5
28AD
  0
POLYLINE
  8
I-STAND
 39
-500.0
  5
28AE
 66
     1
 10
0.0
 20
0.0
 30
188.664364
 70
     1
  0
VERTEX
  8
I-STAND
  5
28AF
 10
2096.54395
 20
-211.332793
 30
188.664364
  0
VERTEX
  8
I-STAND
  5
28B0
 10
2096.54395
 20
146.667207
 30
188.664364
  0
VERTEX
  8
I-STAND
  5
28B1
 10
2171.54395
 20
146.667207
 30
188.664364
  0
VERTEX
  8
I-STAND
  5
28B2
 10
2171.54395
 20
-211.332793
 30
188.664364
  0
SEQEND
  8
I-STAND
  5
28B3
  0
ENDSEC
  0
EOF
